5ちゃんねる ★スマホ版★ ■掲示板に戻る■ 全部 1- 最新50  

■ このスレッドは過去ログ倉庫に格納されています

the pillows 耳コピスレ2

1 :壁に耳あり、障子にメアリーさん:04/09/18 10:18:10
the pillowsの耳コピ-について語りましょう。
何でも情報提供求む!

オヒサルサイト 

ttp://www.pillows.gr.jp/

the pillows 42 -15th ANNIVERSARY-

ttp://ex5.2ch.net/test/read.cgi/musicj/1094895732/

カラオケ板

ttp://music4.2ch.net/test/read.cgi/karaok/1083155054/l50

2 :壁に耳あり、障子にメアリーさん:04/09/18 11:16:01
なんで壁で

3 :壁に耳あり、障子にメアリーさん:04/09/18 12:44:14
3

4 :壁に耳あり、障子にメアリーさん:04/09/18 17:04:55
the pillows official web site
http://www.pillows.gr.jp/

前スレ
ピロウズを耳コピするスレ
http://that3.2ch.net/test/read.cgi/wall/1047141098/

関連スレ
the pillowsコピーセッション
http://off3.2ch.net/test/read.cgi/offreg/1091977141/l50
【本当の顔で】the pillows【うたうよ】
http://music4.2ch.net/test/read.cgi/karaok/1083155054/l50

本スレ
the pillows 43
http://ex5.2ch.net/test/read.cgi/musicj/1095493076/l50

h抜く必要ないでしょ。

5 :壁に耳あり、障子にメアリーさん:04/09/19 01:36:03
>>1
お疲れ!!
まあまったり進んできましょうや。

6 :壁に耳あり、障子にメアリーさん:04/09/19 01:57:34
>>1さん乙です。壁にも即死判定あんのかな…

7 :壁に耳あり、障子にメアリーさん:04/09/19 02:00:29
即死判定はかなり緩い感じ
10レスいってないの長く放置してると消えるようだけど


8 :壁に耳あり、障子にメアリーさん:04/09/19 03:09:33
つか、あの突然の荒らしはなんだったんだ?


9 ::04/09/19 09:12:12
>>4

スマソ、前の荒らしでちょいと怖くなって

10 :壁に耳あり、障子にメアリーさん :04/09/19 20:44:14
初心者でスマソ
第一期〜第二期のpeeたんの澄んだ音は何てエフェクター使ってるの?

11 :nurupo:04/09/21 04:07:13
patriciaのイントロ
D9 C# F#m B
D E A
D9 C# F#m B
D E



12 :壁に耳あり、障子にメアリーさん:04/09/23 10:29:31
ハレー彗星わかる人います?
とりあえず、イントロはGでしょ?

13 :壁に耳あり、障子にメアリーさん:04/09/23 23:34:11
ハレー彗星こんな感じかな
(イントロとAメロ)

G A7 C G

(Bメロ)

F C D B 
(サビ)

E F#m G#m  A   G#m G#   C#m

A   E  A   B   A C  D   E  D  A  E



14 :壁に耳あり、障子にメアリーさん :04/09/24 12:33:54
すんません、ギター買ったばっかの超初心者です。
カーニバルのイントロに惚れました。誰か教えてください。

15 :壁に耳あり、障子にメアリーさん:04/09/24 13:36:26
前スレにあるよ<かにばる

16 :壁に耳あり、障子にメアリーさん:04/09/24 20:32:59
シンクロッカーズのハイブリのイントロがよくわからんので解説お願いしたい。
確かバンプオブチキンがやってるんだけど、半音下げなのかな?

17 :壁に耳あり、障子にメアリーさん :04/09/24 22:00:02
前スレ見れないよー

18 :壁に耳あり、障子にメアリーさん:04/09/25 02:36:33
>>16
bumpですよ間違いなく。
で元のハイブリッドレインボーのKeyはG。
で件のカバーは全音二つ下げのEb。だけどBumpは半音下げバンドなので
ギターのポジション的にはKey E。

19 :壁に耳あり、障子にメアリーさん:04/09/25 03:34:28
>>16
1|7--7--7--7--7--7--7---5---------
2|--7--7--A--A--A--7---5----5-----
3|-9--9--9--9--9--8--86--6-4------
4|------------------------2-------
5|7-------------------------------

1|7--7--7--7--7--7--7---5----4----
2|--7--7--A--A--A--7---5----5-----
3|-9--9--9--9--9--8--86--6-4------
4|--------------------------------
5|7-------------------------------

C#m > G#m > E > A
ちょっとコピーしてみましたよ。半音下げな。
あとTabのAは16進でAだから10Fの意。

>>17
2chブラウザ形式のログならあります。
コピーセッションの方で使ってるWikiに強引に乗っけたら重かったので
なんか考えます。あれが失われるのは惜しい。

20 :壁に耳あり、障子にメアリーさん:04/09/25 03:49:46
なんとなくNoodlesのVainのdogのリフ。

2|-----------A--------------------
3|--9A--------8-----9A-------79---
4|7---9-9A-9A-----7---9-9A-9A-----

21 :壁に耳あり、障子にメアリーさん:04/09/25 04:34:04
なんとなくレッサーハムスターの憂鬱。ソロいまいち。いや全部いまいち?笑。先に言い訳しとくと酔ってますので笑。

http://www.yonosuke.net/clip/2004/9807.mp3


22 :17:04/09/25 08:39:56
>>19 すません。よろしくお願いします。
待ってます。

23 :壁に耳あり、障子にメアリーさん:04/09/25 10:56:07
>>18>>19
マリガトー。バンプ自体が半音下げメインだったのね。

>>17
ヤプーとかググルで「ピロウズを耳コピするスレ」で検索かければキャッシュが見れるよ。

24 :17:04/09/25 12:32:52
>>23,マジで感謝!練習してきます。

25 :壁に耳あり、障子にメアリーさん:04/09/25 12:34:49
>>21

イイ!よかたらコードも教えてちょ

26 :壁に耳あり、障子にメアリーさん:04/09/25 14:46:27
>>21
いいなあ。
俺もやりたいんだけど、パソコンに取り込む方法が分からん_| ̄|○
手元には、ちっちゃいアンプとごく普通のギター、古いマルチエフェクターがあって、一応マイクも調達可能。
こんな機材があるよとか、よかったら教えて〜。

27 :壁に耳あり、障子にメアリーさん:04/09/25 21:01:09
>>26
漏れの場合
ギター→アンプ→(アンプのヘッドフォン)→パソコンのマイク端子→sound engine(フリーソフト)→(゚д゚)ウマー

28 :壁に耳あり、障子にメアリーさん:04/09/25 23:45:08
Windows備え付けの「サウンドレコーダー」とかどうですか?
ギター→アンプ→(アンプのヘッドフォン)→パソコンのマイク端子→サウンドレコーダー→(゚д゚)ウマー?


29 :26:04/09/26 00:06:12
>>27 >>28
ありがとうございます!さっそく試してみます。
(゚д゚)ウマーだったらうpしてみたいです。

30 :壁に耳あり、障子にメアリーさん:04/09/26 03:22:01
どなたか佐藤竹善のカーニバルの歌入りからドラムパターンわかるかたいません?

どなたか教えていただけませんか?

31 :壁に耳あり、障子にメアリーさん:04/09/26 03:34:48
シンクロリフシリーズ巴里の女性マリー

1|--0--0--0--0----
2|----------------
3|7--5--4--2------
4|------------5-4-
5|---------------5

とてもシンプル。

32 :壁に耳あり、障子にメアリーさん :04/09/26 21:56:32
>>30
んなもん、one lifeやtrip dancerと同じだわい。
通常の8ビートのハットをフロアに置き換えてみ。
そしてしんちゃんの手癖スネアをタムに置き換えると。
(偽ゴーストノート……パンクにありがちなヤツ)
……↑んまぁ、原曲と叩いてるパーツが違うだけで、似たり寄ったりだよな。

33 :壁に耳あり、障子にメアリーさん:04/09/27 03:45:25
>>32
うぐ・・・正直よくわからんので精進してきます・・・

34 :14 :04/09/27 17:43:32
超初心ですいません、I think I canのイントロからメロに入る時の
チャチャラ チャラ チャチャチャーンの所教えてくださーい。

35 :壁に耳あり、障子にメアリーさん:04/09/27 18:10:21
ローコードのEから初めて指三本を勘でずらしつつ開放も弾く。
ちなみに終わりはAで同様に。

36 :壁に耳あり、障子にメアリーさん:04/09/27 18:16:02
ってここじゃない?チョーキングとかはいるところ?

37 :14:04/09/27 21:48:45
イントロのスライドが終わった、後のやつです。

3|1-1111-1112-2222-4-2-1-d
4|2-2222-2223-3333-5-3-2-e
5|2-2222-2223-3333-5-3-2-e

の続きです。・・先週始めたばっかりなので全然わからなくて


38 :壁に耳あり、障子にメアリーさん:04/09/27 22:23:41
ううーん今聞いたけどおれも良くわかんね笑。
こんな感じ?全音チョーキングアップダウンで。
1|0000-
2|0000-
3|44442
-|c-c--

39 :壁に耳あり、障子にメアリーさん:04/09/27 22:25:29
いや2弦2かなあ。
1|0000-
2|2222-
3|44442
-|c-c--

40 :14:04/09/28 08:40:49
うぅ・・・わかんないよう(泣)

41 :壁に耳あり、障子にメアリーさん:04/09/28 10:44:45
下のcはチョーキングでこれは3弦にかかる。これはチョークアップで
3弦を素早くチョーキングして全音上げた状態にする。これが最初の3弦4Fにする作業。
次はこれを下げる。でまたチョークアップ、下げる。
この際2弦2Fは抑えたまま。1弦は開放。ピッキングは1弦から3弦全部。
で最後の3弦2Fは3弦のみピッキング。
音程としては、

1|E-E-E-E--
2|C#C#C#C#-
3|C#B-C#B-A

あと泣、とか煩わしい事言ってると反応する気なくなっていくので注意笑。

42 :14:04/09/28 12:20:59
注意されてしまった・・・スンマセン!がんがって練習します!
ありがとうございました!

43 :壁に耳あり、障子にメアリーさん:04/09/28 13:00:16
1|000000 1|000000
2|000002 2|000002
3|444442 3|999992
4|222222 4|999992
5|-----0 5|777770

これのどっちかに聞こえる。たぶん左。ストロークに強弱をつけるとそれっぽくなる。

44 :壁に耳あり、障子にメアリーさん:04/09/28 16:51:53
単純に E F G F E でいいんじゃないの?

45 :壁に耳あり、障子にメアリーさん:04/09/28 20:33:28
1|---00000|0
2|---00000|2
3|--------|2
4|---22222|2
5|---22222|0
6|---00000|-
やっぱこうかな。普通のEの人差し指の部分を押さえずにミュートした形。最後は普通のA。
そしてそのままAメロへ。

46 :壁に耳あり、障子にメアリーさん:04/09/28 21:12:32
>>45
いやーそんな下は鳴ってないと思うけどなあ。
で、俺も訂正。

1|0-0-0-0-xx
2|0-0-2-0-22
3|--------22
4|--------22
5|--------00

>>44
2重に間違ってると思います笑。

47 :壁に耳あり、障子にメアリーさん:04/09/28 21:29:01
>>44
上のだけだと性格悪いので正確に書くと、
俺も同じ間違いしてるけどイントロじゃなくて
そのあとドラムが入ってくるとこのギターのフレーズの話をしてる途中かつ
あのイントロは開放が入るはず。1、2弦の開放もまざってる。6弦は鳴ってないかな?
コードネームにするのはだるいからやりませんが笑。ギター的だし。

48 :壁に耳あり、障子にメアリーさん:04/10/01 21:41:00
とりあえず「その未来は今」をやってみた。
しかもどっかでストリーミングされてるトコのみ。
参考にもならないかも。
F         C         Dm         Am
もうどれくらい・・ 時間は無限・・ 平穏に・・ 狙われそう
G F C   Dm        C    ?
一秒先・・    追いつき・・  振り向いて・・  だろう アウイェー
ヘタレな自分にはこれが精一杯でした。
この後のところは虫食い状態でよぅわかりません。
10/6までにサビだけはコピっておきたいところ。
耳コピに関してアドバイスとかあったらご教授お願いします。

49 :壁に耳あり、障子にメアリーさん:04/10/01 21:41:42
アゲチャッタ・・すみませんごめんなさい生まれてきて申し訳ありませんでした。

50 :壁に耳あり、障子にメアリーさん:04/10/02 05:58:51
エルレアレンジのファニバニをバンドでコピーしたいなあ
原曲の方がいいアレンジなんだけど
エルレfbの方はバンドで演奏したら凄い気持ち良さそうだ

51 :壁に耳あり、障子にメアリーさん:04/10/02 12:03:21
>>50
エルレverはひたすらコード弾きするだけでもふいんきは出ると思う

52 :壁に耳あり、障子にメアリーさん:04/10/06 19:32:53
ニューシングル発売!
早速買いにいきましたよ。つーわけでお粗末ですがコピってみました。
F  C  F  C

F  C  Dm  Am
F  C  Dm  G

F  C  F  C

F  C  Dm  Am
F  C  Dm  G

D  G  F  C
G  Am
D  G  F

こんな感じでした。
どっちかっていうと真鍋さんパートの方が正確に出来たかも・・

53 :壁に耳あり、障子にメアリーさん:04/10/07 22:12:42
シングル買ってきた。Last Dinosaur?っておもった笑。
ジャケットも恐竜だし。
>>52
とりあえずFは全部FM7、CはCM7にしようぜ!

54 :52:04/10/08 14:43:11
>>53
了解です!指摘トンクス!

55 :壁に耳あり、障子にメアリーさん:04/10/09 18:40:04
切実にパントマイム内の曲のコピー希望!
クレクレ厨ですまん・・・ 漏れの腕じゃ全然コピーできん・・・

56 :壁に耳あり、障子にメアリーさん:04/10/11 16:02:33
一応保守しときます

57 :壁に耳あり、障子にメアリーさん:04/10/13 16:36:42
kim dialのソロ耳コピしてみました。
違ってる…かも?

3|--------------------------------------------------------------9---------
4|--------------------------------------------------------??--?-9--
5|-------------------------------3-335-557-778-88?-?------------------
6|8-887-775-553-3310-3-5-0--------------------------------------------

1|---0--------------0--------------------------------------------------------
2|-35----(g)8-86--35-------------------------------------------(hc.ud)-------
3|5----5---------5----5------------------------------------(g)33-53-5-----5-3-1---
4|-------------------------欠括-欠?-??9-997-775-45------------------------

こんなかんじです→http://www.yonosuke.net/clip/4/11111.mp3

58 :壁に耳あり、障子にメアリーさん:04/10/13 16:40:34
うわ、上ずれてる…、しかもt抜き忘れ…!
すみませんでした。

59 :壁に耳あり、障子にメアリーさん:04/10/13 19:32:23
>>57

お疲れちゃん!
いやさっそく弾かせてもらったけど、楽しいな!コレ!
いやマジでサンクス!!

60 :壁に耳あり、障子にメアリーさん:04/10/14 01:42:07
第二期好きでコピってる人いない?
アレなんか難しいね。歪みだと大抵ごまかせるけどクリーンじゃ荒が目立つし

61 :壁に耳あり、障子にメアリーさん:04/10/14 01:43:57
前スレ保存してる人いませんか?

62 :壁に耳あり、障子にメアリーさん:04/10/14 02:55:20

>>61
かちゅーしゃ使ってるから持ってるけど
他の人にもどーやって見せられるようにできるのか
知識無いから分んないのでごめんな。

63 :壁に耳あり、障子にメアリーさん:04/10/14 05:06:27
ごめん、>>57の「?(代)(株)」って機種依存文字でも使った?

64 :壁に耳あり、障子にメアリーさん:04/10/14 17:13:05
すみません、使いました。他に12とか15出せなくて…
ゴシックなのでメモ帳とかメーラーにペーストして文字全選択してゴシックに変換で普通にみれるはずです。

65 :61:04/10/15 01:42:01
>>62
そうですか…
こんなぶしつけな発言にレスして下さってありがとうございました

66 :壁に耳あり、障子にメアリーさん:04/10/15 04:33:50
ファニバニのコード譜希望したいです
一応自分でも耳コピしてみたんだけど
微妙にニュアンスが違う部分があるんだす

67 :壁に耳あり、障子にメアリーさん:04/10/15 22:46:12
>>64
そうか、ありがと。
でも残念ながら俺の環境では変換できないみたい。
その部分は自分の耳に頼ってみるよ。

68 :壁に耳あり、障子にメアリーさん:04/10/17 10:09:36
>>66
まずはおまいの耳コピしたのを貼りたまえ、クレクレだと誰も反応してくれんよ。

69 :壁に耳あり、障子にメアリーさん:04/10/17 19:36:48
誰も反応してくれないの覚悟で
タイニーの あなたは♪ の裏のちゃららら♪てやつがわからない。
一応コピってみたが ドキュDVDみるとなんかポジションが違う・・・
アドバイスお願いします

70 :壁に耳あり、障子にメアリーさん:04/10/18 00:54:30
http://2ch-library.com/pillows/wall/1047141098.html

71 :壁に耳あり、障子にメアリーさん:04/10/18 01:00:36
>>70


72 :壁に耳あり、障子にメアリーさん:04/10/18 01:55:08
>>70
あなた大好き

73 :壁に耳あり、障子にメアリーさん:04/10/18 04:28:48
コピーセッションスレのtabリンク見てたんだけど
やっぱ外人さんの書くタブ譜はすげー見やすいな。
洋楽のタブ譜とかもそうだけど、
余計な2バイト文字とか無い分シンプル。
あれは見習った方が良くないか?

ここらへんがポイント
半角英数のみ
基本的に数字は詰めない (奏法記号を挟む場合はあり)
(二桁以上の数字対策でもある)

後は奏法記号の統一ができれば良いかも。/\ph等

74 :壁に耳あり、障子にメアリーさん:04/10/18 12:50:55
>>70

抱いてください

75 :壁に耳あり、障子にメアリーさん:04/10/18 14:51:12
別に70は神でもなんでもないけどな。
それ言うならサイト管理者にだろ?

76 :壁に耳あり、障子にメアリーさん:04/10/19 23:30:47
質問 shi-ba* さん 2004年10月19日(火) 23時09分
[Mozilla/4.0 (compatible; MSIE 6.0; Windows NT 5.1; .NET CLR 1.0.3705)] YahooBB220061224175.bbtec.net
 
質問すみません
第二期のpee様のエフェクター
ストレンジカメレオン時からさわお様が使用している黒いレスポールのようなギターの
詳細をご存知の方がいれば教えていただけると幸いです。



いやマジで思った あのレスポールもどき 何よ?

77 :壁に耳あり、障子にメアリーさん:04/10/19 23:33:15
ジャンプの背表紙見て買ったんじゃねえの?

78 :壁に耳あり、障子にメアリーさん:04/10/20 08:33:55
さわおならありえるがpeeちゃんは無いだろ、さすがに
とか言われて泣きそうなさわお

79 :壁に耳あり、障子にメアリーさん:04/10/22 00:19:45
保守あげ

80 :壁に耳あり、障子にメアリーさん:04/10/25 02:19:09
ギター弾けない俺はやめておいた方がいい世界ですか?

81 :壁に耳あり、障子にメアリーさん:04/10/25 02:46:59
>>80
このスレの住人ではないですが、やる気と根気があれば
どんなに難しい曲でもその曲だけを一ヶ月くらい練習すれば
それなりに弾けるようになりますよ。

ガンガレ

82 :壁に耳あり、障子にメアリーさん:04/10/25 02:51:52
そうっすか…
ギター弾いてみたいなぁ…

ギターあったけど舷が一本無いや。
…リスナーに徹するかな

83 :壁に耳あり、障子にメアリーさん:04/10/25 04:44:53
>>82
君が頑張るなら漏れらは応援するぞ、簡単な曲からやってみれば?
pillowsだったら何やりたい?

84 :壁に耳あり、障子にメアリーさん:04/10/25 08:40:48
ギター本体があるってのは大きな武器だよなー。
弦なんて500円で買えるんだしさ。

85 :壁に耳あり、障子にメアリーさん:04/10/25 19:42:03
自分なんてギターすらないよ。
とかいってムスタング買うために売っただけなんだけどね。

>>82
漏れも応援するよ。
インスタントミュージックとかコード簡単だし、最初にやるならグッドかなって思ったとある秋の夜。

86 :壁に耳あり、障子にメアリーさん:04/10/25 21:51:53
素直にdvd買ってハイブリやるのも吉

87 :壁に耳あり、障子にメアリーさん :04/10/26 08:35:42
俺も始めたばっかりですが、教本やらずにハイブリの練習ばっかり。
たまには、他の曲弾きたいと思うのですが、
どうしてもハイブリに・・・

88 :壁に耳あり、障子にメアリーさん:04/10/28 10:30:24
>>87 次はFコードなんかの練習に彼女は今日、 とかアナザーモーニングをやってみるといいよ

89 :壁に耳あり、障子にメアリーさん:04/10/28 12:14:06
俺もギターはじめようと思うんだけど
第一期のさわおのリズムギターってむずかしい?
初心者スマソ テレキャス欲しいな

90 :壁に耳あり、障子にメアリーさん:04/10/28 20:57:43
前スレでハッピービバークの譜面を待ってるんだけど
彼もうここにはこないんかな

91 :壁に耳あり、障子にメアリーさん:04/10/28 21:40:19
>>90 ヤフで「ピロウズを耳コピするスレ」で検索すれば、今でも見られるとこありますよ。

バビロンの間奏どこ押さえているかわかる方いますか?
耳コピ経験ないので、単音だともうどこがどこやら…orz クレクレですみません

92 :壁に耳あり、障子にメアリーさん:04/10/28 22:30:00
>>91
出だしのコードのこと?
とりあえず残しておく
人差し指  4弦4f
中指    5弦5f
薬指    3弦5f
小指    2弦6f

93 :91:04/10/29 18:15:42
>>92さん ありがとうございます、ただごめんなさい、こちらの書き方悪かったですね。
二番が終わった後のPeeちゃんパート、テーンテーンテーン…テーンテンテンテーン…っていう、あの単音の部分がわからないのです。
いかがでしょうか?

94 :91:04/10/31 01:24:04
>>93
メロディーの記憶(鼻歌)のみでコピー
よって正確ではないよ(CD聴くの面倒くさかった)

1|7---7--9--------10--10-9-7----7---7---9------11--11---12--14-----14|
2|--8---8-----------10------------8---8----------11--11---------12---|

95 :壁に耳あり、障子にメアリーさん:04/10/31 16:39:49
ああ。気にしてないよのPEEソロがわからん。
氏にたくなってきた くそうPEEめ

96 :壁に耳あり、障子にメアリーさん:04/10/31 17:03:14
>>95
いろいろ重ね撮りしてる予感。一人で3パートくらい弾いてたりして。

97 :壁に耳あり、障子にメアリーさん:04/11/02 15:55:53
ギター無いって言ってる香具師さ、
良いじゃん別にギターじゃなくても。
ピアノでもバイオリンでも、
ドラムとかだったらお茶碗とかさ。
ドレミファが分かれば良いんだよ。多分。
あとから増やしてる、ギターとドラム以外のピロピロした音とか耳コピしても喜ばれるんでない?

98 :壁に耳あり、障子にメアリーさん:04/11/04 20:52:33
ドラムがお茶碗って…
君の頭の中じゃドラムはどうでもいい存在なんだね…
それともいかにお茶碗を上手く叩けるかだったら、かなり奥が深そうだ

99 :壁に耳あり、障子にメアリーさん:04/11/05 02:31:15
響かせないために叩いた後すぐ手で掴んでミュートしたりなw

>>97はあんまり音楽の知識はないんだろうけど
言ってることは悪くない。

まあギター用TABじゃなく普通に音譜(五線譜)を作ってくれても
大体の人は喜ぶでしょうし。
俺は五線譜弱いし、ト音以外で書かれたら激怒するけどな!w

100 :壁に耳あり、障子にメアリーさん:04/11/05 11:58:02
俺の友達は少年ジャンプをガムテープで固定してトコトコ叩いてたよ。

101 :壁に耳あり、障子にメアリーさん:04/11/05 13:20:05
俺の友人はタウンページや雑誌を机に重ねたりして
ハイハット、スネア、タムみっつの位置に配置して練習したそうだ。

102 :壁に耳あり、障子にメアリーさん:04/11/05 23:27:37
うちのドラムは夜に犬の散歩行くとき、スティック持っていってフリフリしてる。

103 :壁に耳あり、障子にメアリーさん:04/11/06 22:17:55
ジャンプもタウンページもドラマー常識。つまらん練習台より使い勝手良いし
あれを一冊ボロボロになるまで叩くとかなりの効果が得られるはず

104 :壁に耳あり、障子にメアリーさん:04/11/08 12:27:38
すいません。walk'in on the spiral希望です。


105 :壁に耳あり、障子にメアリーさん:04/11/08 19:47:36
>>104 どのパートかどこらへんか言わなきゃあかんよ。

今回の会報、その未来は今のコード譜が載ってる…さわおめ、奮発してくれちゃって

106 :壁に耳あり、障子にメアリーさん:04/11/09 01:23:18
びっくりしたよねw
ねらーの苦悩をご存じですかさわおたん。


107 :104:04/11/09 08:33:21
全部!と言いたいところですが、
イントロ教えて下さい!

108 :壁に耳あり、障子にメアリーさん:04/11/10 15:54:49
で?どのパートなのよwwwwwwwwwwwwwww

109 :壁に耳あり、障子にメアリーさん:04/11/10 18:06:12
107はミキサー

110 :104:04/11/10 22:49:59
イントロはギター一本だと思ったら全部入ってた。
すんません、イントロのギターパート希望です。

111 :104:04/11/12 08:33:12
つーか早く教えて。俺みたいなクレ厨ばっかりで
コピできる人居なくなったのか?

112 :壁に耳あり、障子にメアリーさん:04/11/13 02:42:13
hiro2_mustang2でググレ。

113 :104:04/11/13 12:01:45
hiro2さんのとこは、もう見た。あれはオープンでいいの?
G♯ってどう押さえんの?

114 :61:04/11/13 12:11:21
Beehiveのイントロわかる方居ませんか?
米倉版があまり好きじゃなかったので今まで聞いてなかったけど
いざ聞いてみたらめっちゃかっこよかった・・・

115 :壁に耳あり、障子にメアリーさん:04/11/13 14:49:53
>>113 そのサイト見て、ちゃんとコード表買って、しっかり練習すりゃ、もうここに来る必要はあるまい
ちなみにG#はFをボディー方面に4つずらすんだ。100時間くらいコード練習と口の聞き方勉強してから出直せ

116 :壁に耳あり、障子にメアリーさん:04/11/13 15:20:23
パパ格好良い!

話題に出てない所見ると、クアトロではピーちゃん新器はお目見えしなかったのでしょうか?

117 :壁に耳あり、障子にメアリーさん:04/11/13 15:24:29
ピーちゃん何にすんのかなー? ハムかなあ

118 :壁に耳あり、障子にメアリーさん:04/11/13 15:33:56
115ももう50時間くらいコード勉強した方が良いと思う。

119 :115:04/11/13 16:08:35
ハハハハハ。"3"つずらすんだったな。"4"フレット目をバレーするもんだからつい。ごめんね

120 :104:04/11/13 21:28:00
115サンクス。俺の持ってるコード表にもA♭で載ってた。スマソ

此処は、耳コピスレからクレ厨煽って楽しむスレ もしくは、
耳コピとは関係無い話をするスレになってしまったので、もう来ません。

TABにしてくれるから俺みたいな初心者は助かったんだけど。
前スレの神達も、もう居ないみたいだしな。


121 :壁に耳あり、障子にメアリーさん:04/11/13 21:49:57
>>114
Beehiveイントロ
2|-9----------9-9---------9----------5---9-9-----
3|----4-6-4-------4-6-4------4-6-4-----4---------
4|----------6-----------6----------6-------------

2|-9----------9-9---------9----------------------
3|----4-6-4-------4-6-4------4-6-4---------------
4|----------6-----------6----------6-4-6---2-----

演奏記号省略。そこら辺は自分で聴きつつやっちゃってくださいな。
実は10F以上を使う方が楽なんですけど、TAB譜書くのはダルいんでこうしました。
練習がてら、10F以上を使う方法を発見してくださいな。
その方法も最初は2弦9Fです。多分。

122 :121:04/11/14 00:36:09
一言忘れてた。
>>104
イタスギ

123 :壁に耳あり、障子にメアリーさん:04/11/14 02:03:31
をーきんをんすぱいらる間奏の
C-----G#Gのとこのリフメロ
eede-dg-×3ffffggff(単音)?

124 :壁に耳あり、障子にメアリーさん:04/11/14 02:24:26
g-g-a-baC--b-a-fg-(×2 fg-のとこスライド)
キーを4つあげて同じメロを一回
g-g-a-bac--b-a-fg-

C#-CC#-CC#-
C#-FGF#FD#a#
b-ab-ab-
D-C#-b---

g-g-a-baC--b-a-fg-
g-ggf#f

中途半端もいいことですしかなり曖昧ですが
悪い夢のほうを。

125 :壁に耳あり、障子にメアリーさん:04/11/14 03:36:56
また変な日本語書いてる、俺・・・

中途半端もいい「とこ」ですな。

若年性アルツハイマー疑ったほうがいいかな・・・w

126 :61:04/11/14 05:07:00
>>121
ありがとうございます!いまからヘッドホンつけて練習してみます。
レスおくれてすみませんでした。

127 :壁に耳あり、障子にメアリーさん:04/11/14 22:19:02
>>120
その発言はちょこちょこTABとかやってくれてた人も馬鹿にしてるし
ROMってるかもしれないネ申の志気を下げるって意味でも最悪だな
ともかくお前みたいな口の聞き方もなってないニート臭い厨房は来るなって事だ




って 漏れ釣られてル?ウ比

128 :120:04/11/15 08:28:37
127,まずはコピれ、文句はそれからだ。
121、123、124には、大変失礼な暴言だったと反省してます。

確かにイタスギだな・・俺。

129 ::04/11/15 10:16:01
スイマセンでした。スレ汚しは、自分でした。
申し訳ない。自分みたいな電波がかっこつけてギターやろうとしたのが、
間違いでした。ギター捨てて、部屋でおとなしく、ガンプラでも作ってます。

127スイマセンでした。 削除依頼してきます。ゴメンナサイ。

130 :壁に耳あり、障子にメアリーさん:04/11/15 12:54:22
ここまで卑屈に反省する人も珍しいなw
ギータガンガレ。

ちょっと追記。
g-g-a-baC--b-a-fg-
は五弦10フレからを二回。
で、4弦の10フレから。

C#は4弦12フレかな?

たぶんもっといいポジションあるとおもう。
メロディー自体あってるかどうかもわかりませんがw

131 :壁に耳あり、障子にメアリーさん:04/11/15 18:28:37
>>129 ガンプラ好きに失礼なヤツだなw
なんていうか、能力上の差別意識持ってないか?過ぎたことだからあまりほじくり返すべきじゃないとは思うけど、
コピーできる方はネ申、できないヤツは俺に意見すんじゃねえみたいな。ネ申をあまりにも
ネ申と見過ぎて、頼りにしすぎると己の成長を抑制してしまうぞ。追いつき追い越そうよ。

132 :壁に耳あり、障子にメアリーさん:04/11/15 23:42:36
簡単な曲はまずベースからコピるのも手。
そうすればコード進行わかるし。
アンプを通してCDかければ出力いじって聴きたい音だけ抽出できる。
CDをwavにして音を抽出するソフトを使うとか。
何にしろやらない事には始まらないし、慣れと勘も長く楽器やってればついてくるものだと思う

133 :壁に耳あり、障子にメアリーさん:04/11/15 23:50:03
いま>>132がとてもいいこと言った!!!!!!

134 :2088:04/11/17 20:12:08
誰かWhite Ashのコードわかりませんか?

135 :壁に耳あり、障子にメアリーさん:04/11/17 21:05:46
sageることととちゃんとログを読むことを君に要求する。
そのものはスレではでてないが外部へのリンクがある。

136 :壁に耳あり、障子にメアリーさん:04/11/17 23:21:12
>>134
hiro2氏のサイトで概出
「hiro2 pillows」で検索すれば出てくるはず。公式のランダムリンクにも入ってる。
そこ見ればほとんどの問題は解決する。

このスレではギターソロの具体的なフレットとか聞くこと無いだろ。

137 :壁に耳あり、障子にメアリーさん:04/11/18 05:02:10
おはよっ

138 :壁に耳あり、障子にメアリーさん:04/11/18 05:42:34
おう、おはようさん。おはようさん。
今日は何をコピるんだい?

139 :137:04/11/18 16:09:21
>>138
そういわれちゃあしゃあない。とりあえずリタリソ好きなんでソロんとこ。
既出だったらごめんね。

|----------------------------------------h-p--------c----------------|
1|--------------------------------------------------------------------|
2|--------------------------------------------------------------------|
3|--------------------------------------------------------------------|
4|----------------------------------7--7-6-7-6-------7--9-7-6---------|
5|----------7----7-9-7--7-------7-9------------9-7------------9-7---7-|
6|-0--7-8-9----9------------9----------------------9--------------9---|

|----------------v---------v-----------------------------------------|
1|-----------------------------------C----E--E--C-----------------------|
2|--------------------------9---9-9-----------------------------------|
3|----------------B---9-B---------------------------------------------|
4|--------------------------------------------------------------------|
5|-----7--------------------------------------------------------------|
6|-9-7----4-4--0------------------------------------------------------|

疾走感のあるソロ。大好きです
最後の1f12→14→14→12のとこを、オクターブ使ってもイケるとか。
むしろそっちのがカッチョエエ。

ズレてたらごめん。

140 :138:04/11/18 21:07:14
冗談で言っただけだったのに
コピーされたら俺もしないわけにはいかないなw

あまり需要がないかもだけど(っていうか全くない?)
夜明けがやってきた前奏。
最初の二弦の1はシンコペからかも。

1|-3-1-0----00---78|788------5-----8|
2|1-1-1-1313---1---|----8-568-8-5---|
3|-----------------|----------------|

1|8----------------|8788------5-----|
2|-865-8-6-5-------|-----8-568-8-5--|
3|----------57-9-5-|---------------5|

1|-----------------|
2|-----8-6-5-------|
3|7975------57-9-5-|


141 :壁に耳あり、障子にメアリーさん:04/11/19 01:15:55
>>140

神!!!!!!!!!!!!!!!!!!!!!!!!!!!!!!!!!!!!!!!
マジ嬉しい 初期大好きなんだけどコピーするうでなくて
よければ他の曲もたのむ!!!

142 :壁に耳あり、障子にメアリーさん:04/11/19 01:35:21
神呼ばわりされたのが始めてでニヤ笑いが止められない140ですw

この曲がすごい好きってだけで他の初期の曲はあまり思い入れが無いのが
なんか自分で悔しいくらいです・・・
明日にでももしかしたら初期聞きなおしてるかもw

143 :137:04/11/19 21:24:38
よぅし、もいっちょだ。
第2期かな?Please Mr.lostmanより「彼女は今日、」

2l-----------------------8-10-8--7-7-8-7---7-8-7-8-10-10-8-7---|
3l---------------6-7-9---9-11-9--7-7-9-7---7-9-7-9-11-11-9-7---|
4l---------------7-9-11------------------9---------------------|
5l-5-7-5---5-7-9-----------------------------------------------|
6l-------7-----------------------------------------------------|

1l-10-9--10-9--------------------------------5----------9----7-------|
2l-------------12-10--12-10---------------5------5---10---10---10----|
3l--------------------------12-11-9---6-7---7--7---------------------|

1l-12----10------14-14-12-14---14-12-10-9---|
2|----10----10---15-15-14-15---15-14-12-10--|

137で演奏記号いれてみたけど、ズレてたからまた省略。
例えば2列目頭。1弦10-9、2弦12-10はプルってください。
他多数細かいテク使いますけど、スライドとかハンマリングとか簡単なやつですんで、
自分で考えてやってみてください。
ここできねぇよとか、わからんかったら訊いてください。

144 :138:04/11/19 23:52:54
1|--4575-4--7-5-
2|35------3-----

1|3-3-3-3-33-5---
2|5-5-5-5-55-7---5--3--5(6)でトレモロ?
3|---------------------4(5)

1|3-3-3-3-33-5---
2|5-5-5-5-55-7---5--3--
3|---------------------0-1-2-

俺もまけないよう、とか思って挑戦したけど・・・

ネイキッドシャッフルは俺には荷が重過ぎました・・・
正直最初の音から最後の音まで自信ないw
ほんとうに自信がない。
自分が間違えてるって確信はある。

145 :壁に耳あり、障子にメアリーさん:04/11/20 00:53:44
よう兄ちゃん、
「彼女は今日」は第3期だぜい

146 :137:04/11/20 16:47:30
>>144
それでもチャレンジすることは素晴らしい。自分もあんま自信ないっす。
>>145
OK、吊ってくる。

147 :壁に耳あり、障子にメアリーさん:04/11/21 01:55:32
ファニーバニーを耳コピしてみました。

Aメロ
|D |G |D |G |
|D |G |D |G |

Bメロ
|Gadd9 |A |Bm |G |
|D |G |A A/G |A/F# A/E |

サビ
|G F# |Bm |G F# |Bm |
|G F# |Bm Bm/A |G A |D |

こんな感じでしょうか?

148 :57:04/11/21 20:19:21
みんな凄いなぁ…ということで俺も続いてみる

NEWアルバムよりBAD DREAMS全コピ。
当方ウニックスなので画像でうp

ttp://www.yonosuke.net/clip/4/12078.gif

149 :オフ幹事:04/11/23 02:03:44
唐突にオフ会録音ダイジェストをこちらにも
貼ってみるテスト。

オフ会の相談をするのはスレ違いでも、
録音を貼ってここでネタにしてもらうのは
スレ違いじゃないと信じてます。

音質悪いのはカンベソ。
ttp://nori.zive.net/upload/storage/20041123013758_01.zip
ttp://nori.zive.net/upload/storage/20041123014418_02.zip
ttp://nori.zive.net/upload/storage/20041123014646_03.zip
ttp://nori.zive.net/upload/storage/20041123014907_04.zip

パスワードはメル欄sage抜き。


150 :壁に耳あり、障子にメアリーさん:04/11/23 03:11:09
じゃあプロバイダのアク禁解けてるか確認のついでにコメントw

いいっすね。俺もやりたいなぁ、なんて思いますが
北海道民なのと、人様に聞かせられるような腕が無いのとで
無理だなぁ・・・

151 :138:04/11/23 03:11:53
お、アク禁解けてるw

じゃあ明日当たりまたなんかコピって見ます♪

152 :壁に耳あり、障子にメアリーさん:04/11/23 12:43:28
DLできねー!!!最うpキボン!

153 :137:04/11/23 13:22:09
感想とかかいてあっかなぁと覗きにきたら、なんか面白そうなの貼ってあるんです。
でもね、でもね、落ちないんです。

そーいや、GOOD DREAMSのソロって需要あるかな?
簡単そうだからイラナイかなぁって思うけど、欲しい人いたらあげます。

154 :57:04/11/23 13:30:51
GJ!
いいなぁ、セッション なんかすげぇ楽しそうでうらやましいです
またやらないんですかね?
参加できるならしたいな…(その前にギターぐらい弾けるようになれt(ry

>>152
普通にできるよ?昼とか空いてる時間帯に再トライDADADA

155 :壁に耳あり、障子にメアリーさん:04/11/23 16:19:23
>>57さん
BAD DREAMS乙です!
弾いてて楽しいです。

>>オフ幹事さん
前スレでDLできなかったのでうれしいです。
みんな楽しそうでいいなぁ。GJでした。

156 :壁に耳あり、障子にメアリーさん:04/11/23 16:33:49
直リンだとDLできないのかも。
HPまで言ってからだったらすぐ落とせたよ。

157 :57:04/11/23 17:00:32
>>153
(◎w◎)ノ GOODDREAMS欲しいでつ、おねがいしまつ

>>155
おそまつさまでした。

158 :壁に耳あり、障子にメアリーさん:04/11/23 17:53:00
オフ音源乙。良かったよ〜

できれば、スワンキーのソロとかストカメとか書いてくれたら嬉しいんだけどな…

159 :壁に耳あり、障子にメアリーさん:04/11/23 19:33:32
聞いた。
ただのリスナーの立場から言うと
ギターはさすがよくできてる。
演奏はいいね。
し か し
Voがいろんな意味ですごいな
コレも味か・・・

160 :壁に耳あり、障子にメアリーさん:04/11/23 19:48:07
>>159
いやギターもへ(ry

161 :壁に耳あり、障子にメアリーさん:04/11/23 19:59:29
>>160
馬鹿!  せっかく159が黙ってたのに しーっ しーっ
めっ!

162 :137:04/11/23 20:24:36
ハハッ、みんな愉快なだっ!盛り上がってきだぜ。
>>156
トンクス、やってみます!
>>157
了解!
近いうち貼っておきます。チェキよろです。


163 :137:04/11/23 21:21:08
「GOOD DREAMS」のソロ。
-|--s-h--------------------------c--c-|
3|----------------------------------5-|
4|-45-7--7-5-3-2--3-5-----------------|
5|---------------------3-3-5-3-5-7----|

-|-----------------------------s------|
3|-----5------7------9-10-9-10--12----|
4|------------------------------------|
5|-5-3----8-7----8-7------------------|

今回は頑張って演奏記号つけました。しかも10進数。ズレないでくれ・・!
えー、最後の3弦12fんとこなんですが、どうも原曲の雰囲気出せません。
自分はとりあえず4弦ミュートさせつつ弾いてます。微妙ですけどw
なんか指摘あったらよろです。

あとセッション聴きました。
なんか参加したくなってきましたよw
余裕あったらGVoとして参加してみようかな!

164 :オフ幹事:04/11/23 21:49:31
おお。
オフスレではひとつもレスついてないのに、こっちではこんなに(笑)。
ありがとうございます。

ギタリスト約五人、ベーシスト約三人、ドラマー三人で
もちまわりだったので、技量やアンプ音量にばらつきが
あります。
ボーカルは専門が誰一人としていなかったので、
まあご愛敬ってことで。(・∀・)
真鍋ギター弾きながら歌った強者もいます。

次回(がもしあるとしたら)、関東近辺の方は
是非参加してみてください。

165 :138:04/11/23 22:09:22
2|--------------------------------------
3|7-J79-79JJ-9-797---7--J/7-7-77-97-
4|---------------------9----------------

2|------------------------------III88
3|7-J79-79JJ-9-797---7-------JJJ99
4|---------------------9----------------

いやあ、コピーすればするほど自分のヘタレ具合を知る138です。
彼女は今日の前奏。
曲中でも所々使われますね。

166 :壁に耳あり、障子にメアリーさん:04/11/23 22:19:03
ライドンVo.の中の人です。自分でも痛い声だなと思ったので録音聴いてませんw次回も
このゲロ声で「彼女は今日、」に挑戦したいと思いますのでお楽しみに。(勝手に希望曲挙げてたりする)

バンドって楽しいですね。

167 :壁に耳あり、障子にメアリーさん:04/11/23 22:21:01
今度は俺も参加したい

168 :壁に耳あり、障子にメアリーさん:04/11/23 23:26:38
痛いドラマーでつ。
つーか、自分が誰より一番痛いドラマーだったなw
次回はちゃんとスタジオ入って生ドラで練習します
それか、エレドラ全タムメッシュにしてハットは本物買います(浪費しすぎか…)
生ドラの方が何倍も練習になる罠


169 :壁に耳あり、障子にメアリーさん:04/11/24 00:17:12
カラオケスレでも上がったんだけどさ、ネット上でパート毎に録音して1曲ずつやらない?
関東以外に住んでてオフに参加出来ない人もいる訳だしさ

170 :壁に耳あり、障子にメアリーさん:04/11/24 01:35:12
嫌いな話題じゃないけど、なんかスレ違いな方向に進みつつあるような希ガス。
まぁ・・一部の人がコピってるだけで、みんな礼どころかなんも反応ないし、前よりゃましかもしれないけどさ。

171 :壁に耳あり、障子にメアリーさん:04/11/24 02:09:54
>>170
二行目何がいいたいのかわからんぞ。
もちつけ。


172 :170ではないが:04/11/24 02:45:15
>>166 >>168
中の人が出てくるなら、「ここのフレーズに苦労した」とか
「ここはこういうコードで弾いたけどあってるかな」とか
スレに合ったカキコをしてほしい。

抽象的な反省や次回の意気込みならオフスレに書けばいいじゃん。
スレ分けてる意味を考えようよ。

173 :壁に耳あり、障子にメアリーさん:04/11/24 03:17:01
叩くようなことじゃない、叩くようなことじゃない。

ピロオタ皆兄弟、ピロオタ皆兄弟。

174 :166:04/11/24 06:51:35
>>172 ごめんなさい。僕の場合は大抵の曲で他人様がコピーしたコードを弾いてただけなので、
特に悩んでることはなく、>>166は単なるスレ汚しです。これで名無しに戻ります。重ね重ねすみませんでした。

本当は160辺りの書き込みにカッとなって書き込んだんです。今は反(ry

175 :57:04/11/24 10:18:44
>>163
3hx!グッジョブですた

ラスト12はなんかチョリチョリいってるんで2弦開放もミュートで巻き込んだ方が
ニュアンス近いかも…?ある程度歪んで無いとアレですがー。
さて…漏れも次コピるくぁー

176 :壁に耳あり、障子にメアリーさん:04/11/24 22:57:23
>>169
ここじゃない方が良いよ。
新しいスレ立てて、テンプレに音源の録音方法と参考スレ、upの仕方書いてやらなきゃ。
ここでやっても邪魔になるから。
漏れもスレあれば参加します(^_^)ノシ
ただ、録音云々がわかりませんので、初心者でもわかるようにしてくだされ。

177 :壁に耳あり、障子にメアリーさん:04/11/24 22:59:41
でもすぐスレ落ちしないように、壁板がいいとは思う

178 :壁に耳あり、障子にメアリーさん:04/11/25 00:09:45
けど壁にさらにピロスレ立てると荒らされる可能性があるので
やるなら徹底してサゲ進行で。

179 :壁に耳あり、障子にメアリーさん:04/11/25 15:06:14
ファニーバニーを耳コピしてみました。

Aメロ
|D |G |D |G |
|D |G |D |G |

Bメロ
|Gadd9 |A |Bm |G |
|D |G |A A/G |A/F# A/E |

サビ
|G F# |Bm |G F# |Bm |
|G F# |Bm Bm/A |G A |D |

こんな感じでしょうか?


180 :壁に耳あり、障子にメアリーさん:04/11/25 21:32:20
サビ
| G - A - | D - - - | G - F#m - | Bm - - A |
| G - A - | D - A - | G - A - | D - - - |

某ページより引用。

後BメロAじゃなくF#mだとかDじゃなくF#mかな?

どっちが正しいのかは俺には判断つかないところだらけだが。

181 :壁に耳あり、障子にメアリーさん:04/11/25 22:05:09
ーミナル・ヘヴンズ・ロックのAメロとソロの最初を少しやってみました。
耳コピ初めてなんで、かなり違ってるっぽいです。
特にAメロの最後なんてかなりの違和感が…

Aメロ
4|--------------|----5--s7----------7-s9-9
5|5s7s5-3-0----0|5s7---7---9s7-5-s9-------
6|-----------3--|-------------------------
ソロの最初
2|--------------------1515|----------------13-|-----------15c1513---
3|--12141412----12--12----|--12141412---------|--12141412--------14-
4|14----------14--14------|14---------c1210---|14-------------------

この後全然わかんねえorz
誰か訂正よろしくお願いします。


182 :壁に耳あり、障子にメアリーさん:04/11/25 22:10:04
サビ俺の場合。

G A D A
G F# Bm A
G A D D7
G A D

一生懸命コード名にするような曲でないと思うの
弾くならこれくらいで弾く。

183 :壁に耳あり、障子にメアリーさん:04/11/25 22:11:45
ごめんなさい上のはFunnyBunny。

184 :壁に耳あり、障子にメアリーさん:04/11/26 11:15:54
>>179
>>147と同じ人?もしくはコピぺの釣り?
どっちにしたって気分悪いな。

185 :壁に耳あり、障子にメアリーさん:04/11/26 21:32:51
>>184
同じ人だってコピペだっていいじゃん。

186 :壁に耳あり、障子にメアリーさん:04/11/26 22:06:11



187 :壁に耳あり、障子にメアリーさん:04/11/28 08:02:08
ウォキノンDVDの恋のスパイ〜の時に さわおの足元にあるエフェクターは
なに?

188 :|電柱|・Д・) y-~~ ぬるぽ ◆ljcWNullPo :04/11/28 20:23:46
早速ですが、とりあえずWALKIN' ON THE SPIRALの
リフこぴったんですけど。
誰かいります?

189 :|電柱|・Д・) y-~~ ぬるぽ ◆ljcWNullPo :04/11/28 20:50:26
簡単に音源アップ。
リフのみ。音悪いけど。

ttp://www.secret.ne.jp/~dame2/up/walk.mp3

190 :|電柱|・Д・) y-~~ ぬるぽ ◆ljcWNullPo :04/11/28 21:14:12
もう一個。
その未来は今 のイントロ

ttp://www.secret.ne.jp/~dame2/up/sonomirai.mp3

191 :|電柱|・Д・) y-~~ ぬるぽ ◆ljcWNullPo :04/11/28 21:44:17
>>180
あと、これは、

| G - A - | D - D7 - | G - F#m - | Bm - - A |
| G - A - | D - D7 - | G - A - | D - - - |

だと思う。

>後BメロAじゃなくF#mだとかDじゃなくF#mかな?
これはおそらくA on n F#って言うコードだと思う。

192 :壁に耳あり、障子にメアリーさん:04/11/29 19:41:34
>>189-191


193 :壁に耳あり、障子にメアリーさん:04/12/01 14:08:55
旧リバティーのイントロ死ぬほどカコイイね。
弾けたらもっとカコイイんだろうけど。

194 :壁に耳あり、障子にメアリーさん:04/12/02 14:36:33
オレンジフィルムガーデンイントロ

5|55898--
6|-----65

195 :壁に耳あり、障子にメアリーさん:04/12/02 15:50:55
>>194

------h.c(ud)----
4]--32---23------------------
5]55---------------------
6]-----------5-------------

こうじゃない?

196 :壁に耳あり、障子にメアリーさん:04/12/02 20:57:27
>>195

そっちのが合ってるぽいですね。
4弦のところは
4]--34---43------------------
の間違いですよね?

197 :壁に耳あり、障子にメアリーさん:04/12/02 22:48:05
>>196
あ、ほんとだ。
修正とか恥ずかしい事しといて更にまちがえるとはこれいかに

4]--34---43------------------
が正しいっすね。
すんませんでした。

198 :壁に耳あり、障子にメアリーさん:04/12/03 19:43:10
>>1
今更ですがよろしければお願いします

199 :壁に耳あり、障子にメアリーさん:04/12/03 20:50:54
>>198
…?なにを?

200 :壁に耳あり、障子にメアリーさん:04/12/03 22:06:17
>>199
…?なにが?

201 :壁に耳あり、障子にメアリーさん:04/12/04 00:23:33
や、>>1に何がよろしければお願いしますなのかなと
これからよろしくお願いしますの間違い?

202 :壁に耳あり、障子にメアリーさん:04/12/04 14:16:35
>>188
今更ですがよろしければお願いします

と書きたかった

203 :|電柱|・Д・) y-~~ ぬるぽ ◆ljcWNullPo :04/12/04 19:56:21
1|--------|--------|--------|--------|
2|55555---|55555---|55555---|----333^|
3|55555---|55555---|55555---|444^444^|
4|55555---|55555---|55555---|555^555^|
5|--------|--------|--------|666^555^|
6|--------|66666---|55555---|444^333^|

こんな感じ。
2小節〜3小節の6弦は親指で押さえながら、5弦ミュート。

コードで言うと
C→C on A#→C on A→G#M7→G

204 :|電柱|・Д・) y-~~ ぬるぽ ◆ljcWNullPo :04/12/04 19:57:02
ごめん訂正
WALKIN' ON THE SPIRALのリフ

1|--------|--------|--------|--------|
2|55555---|55555---|55555---|----333^|
3|55555---|55555---|55555---|444^444^|
4|55555---|55555---|55555---|555^555^|
5|--------|--------|--------|666^555^|
6|--------|66666---|55555---|444^333^|

こんな感じ。
2小節〜3小節の6弦は親指で押さえながら、5弦ミュート。

コードで言うと
C→C on A#→C on A→G#M7→G

205 :壁に耳あり、障子にメアリーさん:04/12/06 01:08:25
>>203
ありがとうございます。
自分で耳コピしたのと大幅に違ってて少々ショック……

206 :|電柱|・Д・) y-~~ ぬるぽ ◆ljcWNullPo :04/12/06 02:09:11
>>205
もしよかったら貼ってくれません???
参考にしたいんですよ・・・

207 :壁に耳あり、障子にメアリーさん :04/12/09 08:39:48
オレンジフィルムガーデンのサワオパート練習してるんですが、
ギター1本だとソロが単調すぎて・・・
耳コピ神様!Peeちゃんのソロパート教えてください。お願いします。


208 :壁に耳あり、障子にメアリーさん:04/12/09 12:25:32
さあ神よ、アコギ一本で弾ける上にアグレッシブなピロ譜をさらしてくれ

209 :ぬるぽ鳥なし:04/12/09 16:53:36
GOOD DREAMのイントロもコピりましたよ。
日曜のよるにさらします。

210 :壁に耳あり、障子にメアリーさん:04/12/09 18:31:15
ファニーバニーを耳コピしてみました。

Aメロ
|D |G |D |G |
|D |G |D |G |

Bメロ
|Gadd9 |A |Bm |G |
|D |G |A A/G |A/F# A/E |

サビ
|G F# |Bm |G F# |Bm |
|G F# |Bm Bm/A |G A |D |

こんな感じでしょうか?



211 :壁に耳あり、障子にメアリーさん:04/12/14 15:57:46
ほす

212 :壁に耳あり、障子にメアリーさん:04/12/14 17:52:08
天使みたいに君は立ってた

A,D,Bm7,A A,D,Bm7,E
A,D,Bm7,A A,D,Bm7,E,A

Bm7,E,A,F#
Bm7,E,C#,F#
Bm7,E,A

ごめん、イントロ(G,Bm7,D,A??)とソロはよくわかんない。


213 :壁に耳あり、障子にメアリーさん:04/12/14 17:55:05
>212
訂正 C#>C#m

214 :壁に耳あり、障子にメアリーさん:04/12/14 18:41:34
>>212
コピー乙

俺もこれ弾き語りたくてCD買ってから速攻コピった
よって超適当だけど参考までに

天使みたいに君は立ってた

イントロ
AGF#mDmEDm
C#mDmD#E BABAB A

ADBmA C#mDFE
ADBmA C#mDEA
BmE AC#mF#m
BmE C#mF#m DE

イントロああ書いたけどパワーコードでルートたどると
案外それっぽくなると思う

215 :壁に耳あり、障子にメアリーさん:04/12/15 00:55:22
212>214さん 乙です

イントロなかなかいいですね
ほかの人の意見は参考になりますねー どうもです

216 :|電柱|・Д・) y-~~ ぬるぽ ◆ljcWNullPo :04/12/15 05:05:57
かなり遅くなったけど、GoodDreamsのイントロタブ譜
びっとまっぷだから重いけど勘弁。

ttp://www.secret.ne.jp/~dame2/gt/gooddreams.bmp

217 :|電柱|・Д・) y-~~ ぬるぽ ◆ljcWNullPo :04/12/15 05:28:32
天使みたいに君が立ってた歌本

ttp://www.secret.ne.jp/~dame2/gt/tenshi.txt

218 :|電柱|・Д・) y-~~ ぬるぽ ◆ljcWNullPo :04/12/15 06:13:07
その未来は今のイントロタブ譜
びっとまっぷだから重いの勘弁
あと、譜割りとかも気にしないで。
ttp://www.secret.ne.jp/~dame2/gt/sonomirai.bmp



>>216の譜割りも気にしないでね。

219 :|電柱|・Д・) y-~~ ぬるぽ ◆ljcWNullPo :04/12/15 06:14:48
>>218の文字化けちゃってるけど、
3弦の0に見えるフレットは、実は8です。すんまえん。

220 :壁に耳あり、障子にメアリーさん:04/12/15 19:24:41
なんか楽しそうだから俺の持ってるネタ晒す。


初心者向けをのきんを「らしく」弾く方法。

前奏及びAメロだけだが、
C→C7→C6→G#→G

あくまでも「らしく」なので正確ではないが。
ガイシュツだったらスマソ。


あと、ハレー彗星の前奏AメロのA7は
コードブックに載ってる普通のやつじゃなくて、
5弦開放、4・3・2弦2フレ、1弦3フレの
ちょっと変なA7。

一般の方はスルーしてくれ。


221 :壁に耳あり、障子にメアリーさん:04/12/15 19:35:38
GD bmp→jpg
http://www.yonosuke.net/clip/4/12719.jpg

222 :壁に耳あり、障子にメアリーさん:04/12/16 19:25:42
さわおサイクロンはリフィニッシュかい?

223 :壁に耳あり、障子にメアリーさん:04/12/17 19:08:43
さわおにきいてくれよ

224 :壁に耳あり、障子にメアリーさん:04/12/18 15:15:10
さわおギターの話題がでたので便乗。
さわおPUセレクトはどっちで弾いてるの?ハム?シングル?
ライブDVDみた限りじゃセレクター外してるようだけど。

225 :壁に耳あり、障子にメアリーさん:04/12/18 21:22:46
まぁ、俺はシングルに一票いれておくよ。

226 :壁に耳あり、障子にメアリーさん:04/12/19 11:01:04
俺はハム。 さわおハムの音が欲しくてアレ買ったんじゃん
シングルだと意味ないのですが。

227 :|電柱|・Д・) y-~~ ぬるぽ ◆ljcWNullPo :04/12/20 01:19:09
音を聞く限りだと多分ハムだと思うんだが、PV見てるとシングル使ったりしてるね。

228 :壁に耳あり、障子にメアリーさん:04/12/20 19:20:28
>>226
んなこと言われても困る。

229 :壁に耳あり、障子にメアリーさん:04/12/23 21:54:04
>>224
Buster on the planetのことを言ってるなら
ふつうにセレクターかちかちいじってるけど

230 :壁に耳あり、障子にメアリーさん:04/12/26 23:07:58
そんなことより、もまいら。
シンイチロウ親分がドラムマガジンに載っていますぞ。





外出か?

231 :壁に耳あり、障子にメアリーさん:04/12/27 21:49:24
親分はこれから活動範囲を広げていく予定です。

232 :壁に耳あり、障子にメアリーさん:04/12/29 10:47:46
クレクレスマソ  
トリップダンサーの「ちゅるるるるる るーるるーるー」
ていう 海をさかーさにー のとこらへんのカコイイやつの
コード教えてくれい ああ俺ギターの才能ねえな OTL

233 :|電柱|・Д・) y-~~ ぬるぽ ◆ljcWNullPo :04/12/29 12:21:35
>>232
多分
G6→F#m→Bm→E7
G6→A→Bm→Bm

E7はハイコード推奨

234 :壁に耳あり、障子にメアリーさん:04/12/29 18:15:44
不覚にもちゅるるるるにワラタ

235 :|電柱|・Д・) y-~~ ぬるぽ ◆ljcWNullPo :04/12/30 05:52:52
意味違ったのかなw

236 :232:04/12/30 10:34:07
ありがとうございます!! 後々ちゅるるで伝わるか心配だったけど
ホントにありがとうございました

237 :壁に耳あり、障子にメアリーさん:04/12/31 20:26:03
Que逝ってきたぜ
しんちゃんのスネアがQue備え付けのラディックだったため、音がタイト過ぎた。
バスドラが径が小さいので、アンカー付けるほどのパワーヒッターの良さが半減した
ピロウズがドラムバンドである良さがいつもより出てなくて残念だった……





TAMAマンセー!

238 :壁に耳あり、障子にメアリーさん:05/01/01 23:49:33
アケオメコトヨロ。
とりあえず新年初保守
あぁ、今年こそブロンズスネアほしい。

239 :壁に耳あり、障子にメアリーさん:05/01/05 20:30:49
今年の目標はpillows全曲のドラムを打ち込みで表現すること
ドラマーの皆さん協力してくれ

240 :08:05/01/06 08:29:30
あぁ、ようやくネットに繋げる環境が・・・カンゲキ
ニューパソ買って、帰ってこれたっす・・・
でわさっそく、New year's eveのベースです。久々だからなぁずれませんように。

イントロ
2|--------|--------|--------|--------|--------|--------|--------|------24|
3|--------|5-x5-55-|3-x3-32-|3-x3-332|--------|5-x5-55-|3-x3-33-|3-x3-3--|
4|3-x3-320|--------|-------3|--------|3-x3-33-|--------|-------3|--------|

愛のない〜
3|------2-|--------|2-x2-22-|--------|------2-|--------|2-x2-22-|--------|
4|3-x3-3--|0-x0-05-|--------|3-x3-30-|3-x3-3--|0-x0-05-|--------|3-x3-30-|

長い夢を見てる〜
2|--------|--------|--------|--------|--------|--------|--2-----|--------|
3|-------2|3-x3-33-|------23|5-x5-55-|-------2|3-x3-33-|2--2-22-|--------|
4|0-x0-35-|--------|3-x3-3--|--------|0-x0-35-|--------|--------|0-00-00-|



241 :08:05/01/06 08:31:54
目覚ましのベル〜
2|--------|--------|--------|--------1010101010---|
3|--------|--------|3-3-3-3-|3---3----------------|
4|5-5-5-5-|5-5-5-5-|--------|---------------------|
(最後の小節だけ16です。ちなみに10フレットです)

トゥットゥットゥル〜
(ここはイントロと同じで問題はないかと)

愛のない〜からトゥットゥットゥル〜までをもう一回繰り返し
(チャンスを〜から青い空見ながら、トゥットゥットゥル〜のとこですね。)

ギターソロ
一回目はAメロと同じです。二回目も大方同じですが、最後の二小節だけ
2|------24|5-55-55-|
3|3-x3-3--|--------| になってます。
あとはBメロ〜トゥットゥットゥル〜アウトロとまわしていけば完成です。

ちなみに表中のxは意識的に無音にするところです。
ミュートってやつですね、それっぽい雰囲気になりますよ。
細かいとこは間違ってるかも?ベースの皆さんよければレスよろしくー

つーかびみょーにずれてるな・・・

242 :壁に耳あり、障子にメアリーさん:05/01/06 19:16:24
>>239
協力しますぜ。
とりあえず、ドラマガにグッドリ(アルバム)とストカメが譜面付き解説載ってました。
解説の人に言わせれば、BAD〜が一番ピロウズらしいとの事。
あまりに表紙がボロボロだったのでまだ買ってないorz
今週中に買わないと来月号になってしまう。






親分は元々ボーカルだったとはしらなんだ

243 :08:05/01/06 22:10:05
>>242
えっそうなの?
そいつぁー知らなかった
ドラムマガジン立ち読みしてこよ

244 :壁に耳あり、障子にメアリーさん :05/01/06 22:29:02
シンちゃんがギターボーカルしてたって知ったときは俺もびびった。

245 :壁に耳あり、障子にメアリーさん:05/01/06 22:49:58
太くていい声してるよな。ホープとビールを大量に摂取すればあのようになれるのだろうか

246 :壁に耳あり、障子にメアリーさん:05/01/07 02:11:10
確かにさわおより肺活量ありそうだよな

247 :壁に耳あり、障子にメアリーさん:05/01/10 19:44:59
保守

もうすぐツアー再開じゃないか!よろしく!

248 :壁に耳あり、障子にメアリーさん:05/01/12 23:45:14
ハイブリの間奏、原曲はコードだと思われるけども単音でコピってみました。
3|457-----
2|---587-8
1|------5-

3|457-------
2|---587-8--
1|------5-77

3|------79--
2|--8--8--78
1|87-87-----

3|--------
2|--8--88-
1|87-87--I

最初の457があんまり自信無い。


249 :壁に耳あり、障子にメアリーさん:05/01/13 19:57:36
5| 3 5 7 I 9 I K I→3 

5| 3 5 7 I 9 I K I McMc

5| N M I  N M I  5 7 9 I

5| N M I  N M I  P

これにオクターブ音を重ねて、さらに自分の好きなポジションで。
じゃないかなぁ?俺も自身はありませんが。

音自体はあまり間違えていないようですね。

あとかくなら
1
2
3
とかいた方が一般的では?

250 :壁に耳あり、障子にメアリーさん:05/01/15 17:30:29
new years eveのギタソロ前半部。
_|c-----------c-------------------
2|--------------------------------
3|2--0------0-2--0----------------
4|--------22------------020-------
5|--------------------------20----
6|----------------------------3---

_|c-------------------------hs--------
2|--------30-----50-------------------
3|2--0--------------------------------
4|------------5-----5------025--------

間隔等は適当だけどなんとなくで大きめに聞こえてくる方の
メロディーだけを拾ってみました。

単音じゃなくなると取ることがでいなくなるようなへたれですw
どなたか後半部わかりません?

251 :壁に耳あり、障子にメアリーさん:05/01/15 19:20:22
>>248
間奏ってどこだ…と思ってさがしたらソロだったんですね
多分オクターブでトレモロってるよーに聞こえる(もしくは4fズレのハウプレイ?)
だと思うんで>>249さんの指摘が的確かと思うですよ

>>250音は合ってると思うんですがポジションが違うかと
Pちゃんぽいかんじなら4弦7Fから始まる方がしっくり来ると思う。
開放入れない方がビブラートかけやすいし、どうでしょう?
後半部分はそのうちやってみます

とまあ指摘してばっかもアレなので「あの頃に戻って」ソロ
ttp://www.yonosuke.net/clip/4/13575.gif

252 :壁に耳あり、障子にメアリーさん:05/01/15 21:24:25
ずれたらメモ帳で見てくれ。
あとものすごいTABヘタクソなので、参考程度に済ませてください。

New Year's EVE前半(さわおver)

-|c-------c-----------c----c------c----s-
3|---------------------------------------
4|5-----5-5-----------5--7------9--------
5|---77------575-----------7-5----7-5--9-
6|---------------753---------------------

New Year's EVE後半(Peeちゃんver)

-|---------------------------------------
2|---------------------------------------
3|-OKIH-x-CDFHFHHKJMOO---
4|-------------------------------------
5|-MIGF-x-ABDFDFFIHKMM----
6|---------------------------------------

-|---------------------------------------------------------
2|--KL--NLKLK-----------------K----K--------------
3|K----K----------MK--K-KMKM--MK--NMK--------
4|----------------------M-----------------------------
5|-----------------------------------------------------
6|----------------------------------------------------


253 :250:05/01/16 02:30:45
>>252
多謝です!
ソロ(さわお)始めは4弦5フレでおもいっきりチョーキングなんですかね?
自分のチョーキングテクがアレなためか(w
7フレで軽くチョーキングやって5フレへスライドのほうが自分としてはしっくりきます。

254 :252:05/01/16 09:12:20
おととい横浜でライブ見たけどチョーキングっぽいです(断言は出来ないですけど。
まぁ、雰囲気でやってみてもいいと思いますよ!

255 :壁に耳あり、障子にメアリーさん:05/01/17 20:31:34
カルヴェロ(CD)のさわおギターってサイクロン使ってるんでしょうか?
それともこのときはまだシンライン?

256 :壁に耳あり、障子にメアリーさん:05/01/17 22:21:34
サイクロン

257 :壁に耳あり、障子にメアリーさん:05/01/18 00:56:56
>>256 ありがとう。
サイクロンなのか。
あのシャカシャカした感じがなかなか出せないなあ。

258 :壁に耳あり、障子にメアリーさん:05/01/18 08:10:56
                                        ┏┓
    ┏━━━━━━━━┓      ┏━━━━┛┗━━━━┓
    ┃┏━━┓┏━━━┛      ┃┏━━━━━━━━━┛
    ┃┗━━┛┗━━┓        ┃┃    ┏┓  ┏┓
    ┃┏━━┓┏━━┛        ┃┗━━┛┗━┛┗━━┓
    ┃┗━━┛┗━━┓        ┃┏━━┓┏━┓┏━┓┃
    ┃┏━━┓┏━━┛        ┃┗━━┛┗━┛┗━┛┃
    ┃┃    ┃┃              ┃┏━━━━━━━━━┛
    ┃┗━━┛┗━━━━┓    ┃┃┏┓      ┏┓  ┏┓
    ┗━━━━━━━━┓┃    ┃┃┃┗━━┓┃┗━┛┃
    ┏┓┏┓┏┓┏━┓┃┃  ┏┛┃┃┏━━┛┃┏━━┛   
    ┃┃┃┃┃┃┃┏┛┃┃  ┃┏┛┃┃  ┏┓┃┃    ┏┓ 
  ┏┛┃┃┃┃┃┗┛┏┛┃  ┃┃┏┛┗━┛┃┃┗━━┛┃ 
  ┗━┛┗┛┗┛    ┗━┛  ┗┛┗━━━━┛┗━━━━┛ じゃねーの

       ∧_∧  ∧_∧  ∧_∧  ∧_∧
      ( ゚,_ゝ゚).  ( ゚,_ゝ゚) .( ゚,_ゝ゚). ( ゚,_ゝ゚)
     ∧_∧ ) ∧_∧ )∧_∧ )∧_∧ )
    ( ゚,_ゝ゚). ( ゚,_ゝ゚)  .( ゚,_ゝ゚). ( ゚,_ゝ゚)
   ∧_∧ ) ∧_∧ )∧_∧ )∧_∧ )
   ( ゚,_ゝ゚). ( ゚,_ゝ゚)  .( ゚,_ゝ゚) .( ゚,_ゝ゚)/|
  (____)  (____) (____) (____)
/   ./|./   /|./   /|./   ,/|
| ̄ ̄ ̄|/| ̄ ̄ ̄|/| ̄ ̄ ̄|/| ̄ ̄ ̄|/|
||' ̄ ̄ ||  ||' ̄ ̄ ||  ||' ̄ ̄ ||  ||' ̄ ̄ ||                           _| ̄|○←>>1





259 :08:05/01/20 22:40:53
ベースの需要ってあんまりないんですかね?

260 :壁に耳あり、障子にメアリーさん:05/01/21 01:32:20
いや、あるよ。
何やったのかな?おじさんに教えておくれ

261 :08:05/01/22 01:43:15
New year's eveやったんですがね。ほかにもいろいろと。

262 :壁に耳あり、障子にメアリーさん:05/01/22 13:45:52
ぜひぜひアップしてくれ、期待しておるよ

263 :08:05/01/23 03:02:57
ちなみに240は僕です。こんなんでどうっすか?
ほかのも近々うpしますわ

264 :壁に耳あり、障子にメアリーさん:05/01/23 12:13:26
ライドオンシューティングスター
6 6 6 - - - - - - -- - - -
6 6 6 - - - 6 6 - -6 6 6 3
- - - - 5 - 7 7 10-7 7 7 3
- - - - - - 8 8 8 -6 6 8 6
- - - 6 - - - - 11-- - - -
(半音下げ)

265 :壁に耳あり、障子にメアリーさん:05/01/23 19:07:37
ところでライドンのさび部分どうやってる?
自分はぜんぜん聞こえないからあきらめてるけど(何

266 :264:05/01/23 20:00:29
ライドオンシューティングスター(同じく半音下げ)

|-----------6-6-|-6--------------|------------------6-6-|-6----------------|
|-----------6-6-|-6----------6-6-|----6---6-6-6-3---6-6-|-6----------6-6---|
|---------------|------------7-7-|-10-7---7-7-7-3-------|------------7-7---|
|---------------|-------5----8-8-|--8-6---6-8-8-6-------|-------5----8-8---|
|---------------|----------------|-11-------------------|------------------|
|---------------|----6-----------|----------------------|----6-------------|


E E E S S E E E S S Q Q Q E S S E E E S S E E E S S
|-----------------6-6-|-6--------------|-----------------6-6-|
|-6-6---6-6-6-6---6-6-|-6----------3-3-|-3-3---3-3-3-3---6-6-|
|-7-7---7-7-7-7-------|------------3-3-|-3-3---3-3-3-3-------|
|-8-8---8-8-8-8-------|-------5----6-6-|-6-6---6-6-6-6-------|
|---------------------|----------------|---------------------|
|---------------------|----6-----------|---------------------|


Q Q Q E S S E E E S S E E E S S Q Q Q E S S
|-6--------------|-----------------6-6-|-6--------------|
|-6----------3-3-|-3-3---3-3-3-3---6-6-|-6----------3-3-|
|------------3-3-|-3-3---3-3-3-3-------|------------3-3-|
|-------5----6-6-|-6-6---6-6-6-6-------|-------5----6-6-|
|----------------|---------------------|----------------|
|----6-----------|---------------------|----6-----------|


267 :264:05/01/23 20:01:17
続き
|-----------------6-6-|-6--------------|------------------6-6-|
|-3-3---3-3-3-3---6-6-|-6----------6-6-|-6-6------6-3-3---6-6-|
|-3-3---3-3-3-3-------|------------7-7-|-7-7---10-7-3-3-------|
|-6-6---6-6-6-6-------|-------5----6-6-|-8-6----8-6-6-6-------|
|---------------------|----------------|-------11-------------|
|---------------------|----6-----------|----------------------|

|-6--------------|-----------------6-6-|-6--------------|--------------------|
|-6----------3-3-|-3-3---3-3-3-3---6-6-|-6----------3-3-|-3-3---3-3-3-3-3-3--|
|------------3-3-|-3-3---3-3-3-3-------|------------3-3-|-3-3---3-3-3-3-3-3--|
|-------5----6-6-|-6-6---6-6-6-6-------|-------5----6-6-|-6-6---6-6-6-6-6-6--|
|----------------|---------------------|----------------|--------------------|
|----6-----------|---------------------|----6-----------|--------------------|


|-----------------|-----------------|-3-3-3-3-3-3-3-3-|-1-1-1-1-1-1-1-1--|
|-4-4-4-4-4-4-4-4-|-3-3-3-3-3-3-3-3-|-4-4-4-4-4-4-4-4-|-1-1-1-1-1-1-1-1--|
|-5-5-5-5-5-5-5-5-|-4-4-4-4-4-4-4-4-|-5-5-5-5-5-5-5-5-|-2-2-2-2-2-2-2-2--|
|-6-6-6-6-6-6-6-6-|-5-5-5-5-5-5-5-5-|-----------------|------------------|
|-----------------|-----------------|-----------------|------------------|
|-----------------|-----------------|-----------------|------------------|


268 :264:05/01/23 20:02:08
耳コピじゃないんだけどな。

|-----------------|-----------------|-----------------|----------------------|
|-4-4-4-4-4-4-4-4-|-6-6-6-6-6-6-6-6-|-8-8-8-8-8-8-8-8-|----8--8----8----8----|
|-5-5-5-5-5-5-5-5-|-7-7-7-7-7-7-7-7-|-8-8-8-8-8-8-8-8-|----8--8----8----8----|
|-6-6-6-6-6-6-6-6-|-8-8-8-8-8-8-8-8-|-8-8-8-8-8-8-8-8-|---10-10---10---10----|
|-----------------|-----------------|-----------------|----------------------|
|-----------------|-----------------|-----------------|----------------------|


|-------------------------|---------3-(3)-3-3-3-|
|-------------------------|-6-4-(4)-4-(4)-4-4-4-|
|--8--8--8--8--8--8--8--8-|-7-5-(5)-3-(3)-3-3-3-|
|-10-10-10-10-10-10-10-10-|-8-6-(6)-------------|
|-11-11-11-11-11-11-11-11-|---------------------|
|-------------------------|---------------------|


|-1-1-1-1-1-1-1-1-|------------------|
|-1-1-1-1-1-1-1-1-|-4-4-4-4-4-4-4-4--|
|-2-2-2-2-2-2-2-2-|-5-5-5-5-5-5-5-5--|
|-----------------|-5-5-5-5-5-5-5-5--|
|-----------------|------------------|
|-----------------|------------------|


269 :264:05/01/23 20:04:53
|-----------------|---------3-(3)-3-3-3-|-----------------|----------------6-6-|
|-4-4-4-4-4-4-4-4-|-6-4-(4)-4-(4)-4-4-4-|-3-3-3-3-3-3-3-3-|-4-4-4-4-4-4-4--6-6-|
|-5-5-5-5-5-5-5-5-|-7-5-(5)-3-(3)-3-3-3-|-3-3-3-3-3-3-3-3-|-5-5-5-5-5-5-5--8---|
|-6-6-6-6-6-6-6-6-|-8-6-(6)-------------|-3-3-3-3-3-3-3-3-|-5-5-5-5-5-5-5-10---|
|-----------------|---------------------|-----------------|---------------10---|
|-----------------|---------------------|-----------------|--------------------|

|-6--------------|-----------------6-6-|-6--------------|
|-6----------3-3-|-3-3---3-3-3-3---6-6-|-6----------3-3-|
|------------3-3-|-3-3---3-3-3-3-------|------------3-3-|
|-------5----6-6-|-6-6---6-6-6-6-------|-------5----6-6-|
|----------------|---------------------|----------------|
|----6-----------|---------------------|----6-----------|

|-----------------6-6-|-6--------------|-----------------6-6-|
|-3-3---3-3-3-3---6-6-|-6----------3-3-|-3-3---3-3-3-3---6-6-|
|-3-3---3-3-3-3-------|------------3-3-|-3-3---3-3-3-3-------|
|-6-6---6-6-6-6-------|-------5----6-6-|-6-6---6-6-6-6-------|
|---------------------|----------------|---------------------|
|---------------------|----6-----------|---------------------|


270 :壁に耳あり、障子にメアリーさん:05/01/23 20:57:45
ライドンて半音下げだっけ?

271 :壁に耳あり、障子にメアリーさん:05/01/24 02:42:34
peeちゃんが日記で言ってたのはこれだよね
4|K-K-K---7s9-
5|---------------
6|---------5-----


272 :壁に耳あり、障子にメアリーさん:05/01/24 02:44:28
すいません、コレでした
4|K-K-K-------
5|-----------7s9-
6|---------5-----

273 :壁に耳あり、障子にメアリーさん:05/01/24 19:19:32



274 :壁に耳あり、障子にメアリーさん:05/01/24 19:50:10
誰かシンクロッカーズのハイブリのMIDI作って。

275 :壁に耳あり、障子にメアリーさん:05/01/24 23:33:38
>>274
で、作ったらお前は何をしてくれんの?

276 :壁に耳あり、障子にメアリーさん:05/01/24 23:48:25
着メロ作るとかじゃね?

277 :壁に耳あり、障子にメアリーさん:05/01/29 08:30:59
おはようございます。
昨日はトリップダンサーのベースをコピーしようと頑張ってみたのですが、
オープニングしかコピーできなかったorz
今日アンプ買ってきて、ベースの音拾ってみます。
誰か全国のピロウズファンのためにギターコピーしてくれませんか。





トリップダンサー演奏したいよ〜。

ドラムはワンライフとかと同じフロア使いフレーズで、
サビは裏(スネア部分)でクラッシュ鳴らし、
サビ前とサビ内でタムフレーズ叩けば9割コピー完了です。

278 :壁に耳あり、障子にメアリーさん:05/01/30 09:06:06
電|д■)<第三回コピーセッション・春開催!!カモン!!
柱|⊂)
≡|∪

279 :壁に耳あり、障子にメアリーさん:05/01/30 14:21:27
>>278
釣りじゃなけりゃ詳細カモン!

280 :壁に耳あり、障子にメアリーさん:05/01/30 14:40:44
the pillowsコピーセッション
ttp://off3.2ch.net/test/read.cgi/offreg/1091977141/
下記テンプレをセッションスレに書き込みして下さい。
まだ日程などは確定していません。ある程度参加者が固まってきてから確定させます。
以下セッションスレより抜粋。

〜*第3回関東地区ピロウズコピーOff開催について*〜
今から準備して3月後半(少しキツい)〜5月前半あたりに開催できればと思っています。
つきましては、参加希望の方に希望開催時期と担当パート、希望曲を
提示していただき、話し合いを進行させる事になります。
前回同様、曲目は参加希望者が自由にレスして決定します。
曲目の希望者が少ない場合はその時に調整します。
会場は前回と同じ下北沢rinky dink studioを考えていますが、
参加希望者の人数、参加可能地域によって変更になる事があります。
以下のテンプレに名前と希望を書いてレスして下さい。

名前:
希望パート:
希望日程:
(絶対に無理な日がある場合は明確に記入。)
■(曲目)
Vo:(希望パートに名前)
MGu:
SGu:
Ba:
Dr:


281 :壁に耳あり、障子にメアリーさん:05/01/30 20:18:23
あげ

282 :壁に耳あり、障子にメアリーさん:05/02/10 23:19:20
あげ

283 :壁に耳あり、障子にメアリーさん:05/02/14 23:45:51
おーい、雑談でも良いから書き込まないとスレ落ちるよ

284 :壁に耳あり、障子にメアリーさん:05/02/15 22:36:37
じゃ自分がアコギでやったnewyearseveの前奏を。

1|3-3----2-22-----0-0----3-330-00-
2|0-0--0-3-33-24201-1--0-3-331-11-
3|0-0-2-22-22-----0-0-2-20-000-00-
4|0-0----0-00-----2-2----2-222-22-
5|2-2-------------3-3----3-333-33-
6|3-3-----------------------------

二回繰り返してくださいな。
ところでたぶんsageでも保守は効きますよ。

285 :壁に耳あり、障子にメアリーさん:05/02/15 22:38:12
壁は3ヶ月は落ちないらしいよ

286 :壁に耳あり、障子にメアリーさん:05/02/16 07:45:49
     /三ニ//ヘヾ !;!;! ;`i//ミミ;;、
.    /ニ三彡ii'i(゛ヾ;; ノノノ;;彡三ミ;
.    'i::::::::::::'' ゛`゛     `゛ヾミ;;;'
    i:::::::::::::  .................. ..... ..... i;'
.    i:::::::::::  ,,,,,,,,、、、   ,,,,,,,,,、、!
   i⌒ヽ;::  ""<エエュ::;-‐ソエエゝ゛i
   ! :`y       '''´ :::: `i`ー ` |
   ヽ,_.; ヽ        _;  i    |
    ;i.   `      ;'(_....__;)、  |  < オマエハモウ 死ンデイル!
    ;|  ;     / _ ..._;.. ,ヽ i
    |   !.       ̄`´ ̄  ノ
   ノ   'ヽ、      ''⌒  /
. -‐'´.     `'''ー-、___   __ノ
              ̄ ̄|





287 :壁に耳あり、障子にメアリーさん:05/02/19 19:54:07
さて、まずはfoolからこなして行こうと考えました(謎

1|----------------|----7--------7---------
2|77778-78-7------|10---10--10---10-101087
3|77777-77-7797---|--7-----7--7-----------

2|77778-78-7------|10101010101010101010888877
3|77777-77-7797---|7-7-7-7-7-7-7-7-7-7-777777

2|77778-78-7------|
3|77777-77-7797---|1212121212121211-9-7-
4|----------------|101010101010109--7-5-

ここまで前奏、「10」とか「1と0」じゃなくて十ね。

288 :壁に耳あり、障子にメアリーさん:05/02/19 19:56:01
続き

1|1---3--53|----3-53|----3-53|1-3-5-8-|6--8----|5--8----|------------|----0---
2|1----3---|-----3--|-----3--|--------|--6-----|-6------|1/33/55/8-8-|65311---
3|3--------|--------|--------|--------|--------|--------|3/55/77/9-9-|----0---
4|3--------|2-------|3-------|--------|--------|--------|------------|----2---
5|---------|0-------|1-------|--------|--------|--------|------------|----3---


1|1---3--53|----3-53|----3-53|1-3-5-8-|6--8----|5--8-665|56----8-|
2|1----3---|-----3--|-----3--|--------|--6-----|-6------|--3-56-5|6101110611--10
3|3--------|--------|--------|--------|--------|--------|--------|----------10
4|3--------|2-------|3-------|--------|--------|--------|--------|--------
5|---------|0-------|1-------|--------|--------|--------|--------|--------

ここまでAメロ。

自信ないとこたくさんあるんで、どなたかわかる方いれば訂正お願いしたいです。
さぁてBメロだー。ガンバリマス。

289 :壁に耳あり、障子にメアリーさん:05/02/19 20:47:55
ぁぁ、Bメロ聞こえない・・・。

1|--------|--------|--------|1-----------
2|--3---31|----6531|--2----2|3---2/33/5-5
3|--------|--------|------0-|2-----------
4|3-------|2-------|2-------|0-----------
5|1-------|3-------|0-------|

1|--------|--------|--1-5-9-|CCCCC---A-A---
2|--3---03|----6531|--------|
3|--------|--------|--------|
4|3-------|2-------|2-------|
5|1-------|3-------|0-------|

こんな感じですかね・・・Aメロよりさらに自信ないw
サビって既出でしたっけ?パッと見た感じ見当たりませんでしたけど。
サビ取るの難しそなんで・・・

290 :壁に耳あり、障子にメアリーさん:05/02/19 20:50:30
2||1/33/55/8-8-|65311---
3||3/55/77/9-9-|----0---
のところ
2||1/33/55/8-8-|65311---
3||2/44/66/9-9-|----0---
の書き間違いです。ここは特に自信ないっす。

291 :壁に耳あり、障子にメアリーさん:05/02/19 21:48:50
>サビ取るの難しそなんで・・・
とか言ってますがソロの間違いでしたw

2|----|--------|--------|-----7--|-----------
3|----|--------|-------7|-7-9----|7-7-97-7---
4|--44|4--44574|---4457-|--------|---------9-

1|--1010|10--------1212|12-------------------
2|------|----7-97------|----9-119-9119--9----
3|------|--------------|--------------12-1211

3|6 8 8 6 8 10 10 8 10 12 12 10 12 13 13 12 |

1|------------6-5-3-|-----
2|------------6-6-3-|------
3|-------------------------
4|77777-57-57-------|77777-57
5|77777-57-57-------|77777-57

ソロきつー。アウアウアー
このスレ見てる人どれくらいいるんだろ・・・

292 :壁に耳あり、障子にメアリーさん:05/02/19 22:30:10
ギターも弾けないのにROMってます

293 :291:05/02/19 23:18:19
>>292さん

よし、ギターを覚えましょうw
ギターは素晴らしいですよ?
楽器としてはバイオリンほど綺麗な音色を出せませんし、ピアノほど多彩な音は出せません。
けどアコースティックギターには暖かさがありますし、エレキギターにはパワーがあります。
なによりとっつき易いです。ハイコードだけ覚えれば曲が弾けますし。
例えばブルースドライブモンスターなんてコード五つ、押さえ方は二つだけで引けます。

・・・俺の言葉じゃ全然そそらなそうだなw

294 :壁に耳あり、障子にメアリーさん:05/02/20 00:38:34
ラスト付近のちょっと静かめなサビのとこ。

2|--7-|--8-|----|----
3|---7|---9|-47-|----
4|-7--|-9--|5---|----
5|5---|7---|---5|----

2|--7-|--8-|----|----
3|---7|---9|----|----
4|-7--|-9--|545-|----
5|5---|7---|---5|----


とPEEちゃんギターを狙って、耳コピしてみました。
力量不足ですな、やっぱり。
前スレにいた007さんとか顔文字の人とかカムバーック・プリーズw

ところでBメロ前の
2|-10 11 10 8 11--10
3|-------------10--
はたぶんサワオですよね?

ライブDVDとか見ればサワオかPEEちゃんか判断できるんだろうなァ・・・
買うかな・・・けど買うなら916とハイブリ講座のついてる奴が欲しいな・・・
あわせて一万ほど・・・どっかで買うと安いとかあるかな?タワレコとかw
札幌のタワレコに置いてあるだろうか?

295 :壁に耳あり、障子にメアリーさん:05/02/20 18:59:51
おお、昨日の自分の書き込み4時間半にもわたってるw

実際はそんなにかけてませんw
途中息抜きに何かピロウズでないものを弾いたり
ネット徘徊したりしてましたw

では今日はこれを。

296 :壁に耳あり、障子にメアリーさん:05/02/20 19:00:27
New Years Eve

前奏

2|-----------------|-----------1-11-
3|0-0--2420--0-2420|0-0-2420-00-----
で弾くと・・・ちょっと寂しいw

でリズムギターが↓×↓××↓××って感じで弾いてますかね。
どの音かはわかりませんw

Aメロはリズムギター聴きにくい!w

4|--5--5--|--2--2--|-----------0|--5---5-
5|-5--5---|-2--2---|---10-7-/3--|3--3----
6|3--3---3|0--0---0|8-----------|--------

297 :壁に耳あり、障子にメアリーさん:05/02/20 19:01:05
BメロはEm C7 G D Em C7 Bm Emの
 最後のBm Em以外コード弾き

2|0-3-7---|--------
3|--------|--------
4|--------|--------
5|--------|--7-57--
6|--------|5--5--3-

サビは
コード弾き
 A
|↓×↓×↓×↓×|×↓××↓×××|
 C
|↓×↓×↓×↓↓|×↓↓×↓×××|
って感じかなぁ?

Ride On Shooting Star
の「大人びて〜」のところと「引き連れて〜」ところでパターン変わる所は

2|--8-8---
3|7--7----

1|----15--1515----
2|14----14----14--
って感じでしか取れませんでしたがどなたか助言プリーズ。

298 :壁に耳あり、障子にメアリーさん:05/02/20 19:31:38
あ、ライドン勘違い。

2|--8-8---
3|--------
4|7--7----

1|----15--1515----
2|----------------
3|14----14----14--
と、オクターブだらけの運動会(?)です。

299 :壁に耳あり、障子にメアリーさん:05/02/20 23:24:52
次はカニバルー。

Sgはほぼパワーコードを8分ですな。

Aメロリフはほぼここから。
ttp://kyokoscafe.net/pirouzu/tabs/aldea_carnival.txt
自分じゃ取れないです・・・w
G|-4-0-5-0-7-0-4-5-0-7-0-4-0-5-0-7-0-4-0-5-0-7-0-5-0-7-0-4-0-5-0-7-:||かける3
G|-4-0-5-0-7-0-4-5-0-7-0-4-0-5-0-7-0-4-0-5-0-7-0-5-0-4-5-0-7-5-4-0--||

Bメロ
5|----3333|22227777|3332----|-----xxx (x=コードC)
6|5555----|--------|----5555|5555-xxx



300 :壁に耳あり、障子にメアリーさん:05/02/20 23:26:11
サビ
ストローク G シンコペC G シンコペC。
「君と」のくだりが
1|--3/7----|-538--3-|--------|--------------------|
2|3--------|3-------|--------|4/5-0-4-0-4/5-0-0---|
3|---------|--------|--------|--------------------|
この四小節目はSgは一拍目のパワーコードを全音符で。

間奏一つ目。
2|--5--5-7|-538--3-|---7---7-|--------------------|
3|0-----0-|3-------|---------|4/5-0-4-0-4/5-0-0---|
4|--------|--------|5/7---7--|--------------------|
を二回繰り返し。

さぁて・・・ちょっと気力がつき掛けてきたな・・・

独り言
サンティの時計素敵だったな。
マーラーはあまり聞かないからわからん。
グルダはもっとわからん。
ハイブリのリフはDVDを見ることにするので自分ではやりませんw
ってかセッションスレの人がそれぞれのコピーに忙しくて
このスレなんて見ないのか・・・orz


301 :壁に耳あり、障子にメアリーさん:05/02/20 23:57:12
何度練習してもカニバルAメロリフ間違える・・・
どう弾けばいいかはわかってるつもりなんだけどなァ。

302 :壁に耳あり、障子にメアリーさん:05/02/21 00:28:54
耳コピが苦手な俺はこれを弾いて
楽しかったよということしかできません。。

303 :壁に耳あり、障子にメアリーさん:05/02/21 00:47:35
反応があったことが嬉しくてしょうがない事は秘密ですw

二人っきりのピロウズの場合はブランニュはギター二本より
コード弾きアンドドラムの方がいいかな?ご意見求むー。
ブランニュはドラム難しくなさそうだし早いオカズも無いから自分でも叩けそうだし。
ってかどんな曲でもギタ二本よりはギタ&ドラムの方が良さそうだけどw

タム回しできるようになりてーw

304 :壁に耳あり、障子にメアリーさん:05/02/21 00:52:30
ピロウズはドラムバンドなので、ドラムとギターが良いと思います。
できればドラム叩き語りでw

305 :303改めだりだり:05/02/21 01:02:52
叩き語りw
そしたら当然カーニバルですねw
あの素敵なタムを叩きながら・・・絶対歌えません、はいw

306 :壁に耳あり、障子にメアリーさん:05/02/21 01:19:41
最新アルバムなら、グッドリ、ローファイ、オレンジ、ザビエル辺りがドラムバンドらしくて非常にオススメなんだけどな。
特にグッドリの「誰にだって自由に〜」あたりとローファイのサビが最高!

307 :壁に耳あり、障子にメアリーさん:05/02/21 01:22:41
あ、あとグッドリのサビの初めの部分。
「忘れられた〜」もかなり最高。



熱くなりすぎましたorz

308 :だりだり:05/02/21 01:31:20

ドラムはかっこいいよなぁー。
ギター始める頃にもどって、「ギタとドラム、どっちやる?」て言われたらギタ選ぶけどw

ドラムは一人で完結できない寂しさがありますものw

309 :だりだり:05/02/21 01:55:52
うわ、ブランニュドラムに注目すると・・・
ドラム初心者には結構えげつないかも・・・
4分ハイハットwith8分で裏にバスドラとかは・・・できなくは無いけど・・・
ってか8分の裏ですらないかも。聞き取れない。

バスドラも4分でいいやw
こんな味のあるドラムを叩くしんちゃんが憎らしい・・・

310 :壁に耳あり、障子にメアリーさん:05/02/22 20:26:47
バビロンのギターソロ直後からさびまでのpeeちゃんギターを
耳こぴできた強者はいない?

311 :壁に耳あり、障子にメアリーさん:05/02/22 22:37:18
>>310
俺普通にパワーコードで弾いちゃってるけど、難しいことやってる?

312 :壁に耳あり、障子にメアリーさん:05/02/22 23:12:08
RosyHeadのSGやってみた。全然たいしたこと無いけどさ一応
なんか本文長いって怒られるからこっちに
http://wiki.fdiary.net/pillowssession/?Tab



313 :壁に耳あり、障子にメアリーさん:05/02/23 00:40:38
全然たいしたこと無いけど歌いながらきっちり弾こうとすると難しい笑
あと上のURLにPTBおきました

314 :310:05/02/23 22:04:10
いや、実はさわおのパワーコードの裏でギターソロのpeeギターがなってる
まあCDでもぜんぜん聞こえないし弾かなくてもいいかも

315 :壁に耳あり、障子にメアリーさん:05/02/24 00:50:17
>>313
パワータブありがと
参考にさせてもらいます

316 :壁に耳あり、障子にメアリーさん:05/02/24 17:49:24
>>310
そうだったのか。再度聴いてみてもわからないorz

317 :だりだり:05/02/24 20:29:53
カーニバルの二回目の間奏をやって見るには見ましたが
出来たのは前半まで・・・
結局ttp://kyokoscafe.net/pirouzu/index2.html
に頼る始末ですw

間奏の所は上記サイトを見るのが早そうなんで・・・
最後のサビ前の「二人同時に 夢で見たのさ」の
「同時に〜」の後の音はラドシレです、以上!

役に立たないな・・・俺w

バビロンのギタソロ後って
「煙のような町で眠って〜」ってとこの
1|7-7-5---9-9-7--って奴ですかね?
四小節目がすごい聞き取りにくいっすね・・・

318 :だりだり:05/02/24 20:52:42
自分の書き込み訂正>>300

>間奏一つ目。
>2|--5--5-7|-538--3-|---7---7-|--------------------|
>3|0-----0-|3-------|---------|4/5-0-4-0-4/5-0-0---|
>4|--------|--------|5/7---7--|--------------------|
って書いてますがこの二小節目、Bメロの奴です、失礼。
2|--5--5-7|--------|
3|0-----0-|-204----|
4|--------|--------|
がたぶん正解っす。

319 :だりだり:05/02/24 21:03:42
ブランニュの間奏部、アルペジオじゃない方はこんな感じですかね?

3|4v------2v-4v------5c----2v------------4----/12--(14?)
4|------5----------------------5---4--5-------------------

間隔・記号共に適当っす。

320 :かとう:05/02/24 23:17:05
>>300
いやみてることはみてますよ。ほかの人も見るだけは見てるんじゃないかな
で折角なんでカーニバル

きみーとーのとこは
1|---7-------8----
2|--8--8----8--8--
3|9------9a------a
4|--------a-------
て聞こえた。Em>F9
結構大振りにアルペジオ。

間奏は
2|--5----7---------7--7-----------
3|-----------4--4--------45-45-45-
4|5---557--75--5-57--7--7--5--5--5
こんなん。

321 :かとう:05/02/24 23:23:16
>>315
それ雑です済みません笑。30分くれーでざくっとやってしまったので。
とりあえず手持ちのPTBはあげていこうかと。ベースばっかですが笑。
いまはGoodDreamのベース耳コピ中。ベースはどうにも雑に出来なくて時間がかかります。

322 :だりだり:05/02/25 01:32:59
>>320
あ、素晴らしいです。
間奏4小節目は(自分の)やりやすさを考えてあくまで
3|4/5-0---4---0---4--/5---0-------
c|1---+---2---+---3---+---4---+---
に固執しますけどw

かとうさんってベーシストだったかギタリストだったかと不思議に思い
wiki見に行ったら・・・両方やられるんですね、かっこいい♪

323 :壁に耳あり、障子にメアリーさん:05/02/25 17:27:14
どちらさんか、ハレー彗星のサビコード教えておくんなまず…
昨夜A、Bメロはそれ風味のが拾えたんだが、サビはさっぱり orz

324 :壁に耳あり、障子にメアリーさん:05/02/26 20:00:13
>>323
>>13が参考になるかと

325 :壁に耳あり、障子にメアリーさん :05/02/27 17:00:55
ストレンジカメレオンのコード進行教えてください。なかなか理解できず・・・

326 :壁に耳あり、障子にメアリーさん:05/02/27 19:23:09
>324,13
うお、見逃してた。thx!!
バビロンの裏ソロ、何となく聴こえる様で取れないというか、合ってるのか
不安になりますな。ちょっと探してみよう。

327 :壁に耳あり、障子にメアリーさん:05/02/27 21:23:14
>>325
「hiro2 pillows code」でググれ

328 :壁に耳あり、障子にメアリーさん:05/02/27 21:43:49
>>327
325じゃないがそのページ間違いだらけじゃん。
間違いをどうどうと載せるのやめて欲しい。

329 :壁に耳あり、障子にメアリーさん:05/02/27 22:47:51
間違いだらけですね・・・
誰かストレンジカメレオンもう少し合ってるコードわかりませんか?
教えてください

330 :壁に耳あり、障子にメアリーさん:05/02/28 01:47:19
やああああああああっとGoodDreamsのベース終了。
つーかこのペースはやばい。こんなに時間かけてたら死ぬ。

例によって長いのでリンクで。
http://wiki.fdiary.net/pillowssession/?Tab

331 :壁に耳あり、障子にメアリーさん:05/02/28 03:01:31
ストレンジカメレオンって、さわおのサイドギターはあんまり目立ってないよね。
コードネーム当てはめてそのまま弾いても同じにはならない気が。
まあPeeちゃんパートと合わせてやってみようかな。

332 :hiro2:05/02/28 21:56:19
ストカメはある本からの抜粋ですので勘弁。
確かに古い曲は間違い多いのであくまで参考まで。

>>328
要望が多ければいつでもやめまっせ。著作権問題もあるもんで。

333 :壁に耳あり、障子にメアリーさん:05/02/28 22:20:50
GOOD DREAMSは古い曲ですかそうですか

334 :hiro2:05/02/28 23:05:46
>>333
どのへんでしょうか?大きな間違いはないと思ってたのですが。

335 :壁に耳あり、障子にメアリーさん:05/02/28 23:16:56
Robotmanのベース耳コピ終了。
つーかこれPtbちょっと作ったけど途中で作るまでもないことに気づきました笑。
Aメロはオクターブであとルートそれだけ。
問題はオクターブとこの弾き方だな
無難にピックかスラップぽく親指と人差し指か普通の指びきか。

336 :壁に耳あり、障子にメアリーさん:05/03/01 00:21:17
自分でマトモに採譜も出来ない奴が吠えてるだけだからお気になさらず
喜んで活用してる人のがよっぽど多いから

337 :だりだり:05/03/01 02:19:42
自分もhiro2さんの所は良く参考にさせてもらってます。
できれば、これからも続けてくだされば嬉しかったりします。

338 :壁に耳あり、障子にメアリーさん :05/03/01 08:32:36
俺もhiro2さんのページ参考に、頑張ってる初心者です。
正直hiro2さんがやめてしまったら困ってしまう・・・・
オロオロ(゚ロ゚;))((;゚ロ゚)オロオロ、やめないで下さい。

339 :331:05/03/01 12:09:46
ストレンジカメレオン

イントロ、Aメロ共通
│G    │Am    │Bm    │C    │

Bメロ
│Am    │D    │B7    │Em Bm │G Bm │
│C     │C    │A7    │A7     │
│D     │C    │Bm    │Am    │Em    │

サビ
│Cadd9 │Cadd9 │G    │G    │
│B7   │B7   │Em Bm │G Bm │
│C    │C    │G    │G    │
│Am   │C CM7 │G    │C D │

ポジションは自分でいいようにやってください。

340 :かとう:05/03/01 12:57:22
ストレンジカメレオン勘違いしないでねのとこは
Em7>A7>C>G
で1弦ミュートで2弦トップノートを
D>C#>C>Bって下降させるといい感じです

341 :だりだり:05/03/01 22:06:06
向こう岸へついた
1|---/10
2|-78---
3|9--9--
後を考えてる今でもずっと
1|10--10--10--101012--12--12--1212

1|14--14--14--141415--15--17--17--|19--19-----

はどうでしょう?


1|7---7-7-8-7-810-8-7-
2|8---8-8-8-8-8-8-8-8-
3|7---7-7-7-7-7-7-7-7-
って言うのをwikiからのリンクで見たんですが
これはあってるんですかね?
あってるようで違うような・・・と、自分判断つきません。

342 :だりだり:05/03/01 22:28:49
サビのところ、またもやwikからのリンクにあるところをiを参考にする感じで・・・
1l-10---10---10---10-8-7-8-10---10---10---10-8-7---
2l-----------------------------------------------8-
3l----9----9----9-------------7----7----7----------

1|-----8-7-5-7--------------------
2|---7---------7-8------------1212
3|/8---------------9-911111212----
4|-----------------------------9-9
5|-----------------7-7-9-91010----


3l-12-------14/16----12-
4l----------------------
5l-10-------12/14----10-

これ以降はよくわかりませんでした。

343 :壁に耳あり、障子にメアリーさん:05/03/02 12:28:56
>>333
下の方にピロウズのグッドリがある。
上の方はルースターズトリビュートのグッドリだよ

344 :だりだり:05/03/04 00:21:27
OrangeFilmGardenのPTBデス。
http://odin.prohosting.com/gawgaw/clip/img/1.zip

正直ソロ全然わからん・・・

345 :だりだり:05/03/04 21:24:26
あ、ヒロさんのところのグッドリは
C-B-Fm7って書いてるけどB♭ですね。
書き間違えた程度のものだとは思いますが。

グッドリて最初メロディー弾いてるのはPEEちゃんすか?それともさわお?

346 :だりだり:05/03/04 21:59:00
グッドリ前奏

Gu1,右から聞こえてくるギター(PEEちゃん?)
3|-0-|-0-0-0-0-0-0------|-------------------0-|-0-0-0-0---------|-----------------0--|
4|-2-|-3-2-3-2-3-2------|-------------------3-|-2-3-2-3-2-3-5-3-|-/7--------(3)----2--|
5|---|---------------/5-|-(5)-3-(3)------------|
 Gu2,左から聞こえてくるギター(さわお?)
2|---|-1-1-1-1----------|-----1--1--1-1-1-1-1-|-1-1-1-1---------|-----1-1-1-1-1-1-1--|
3|---|-0-0-0-0-3-3-3--3-|-----2--2--2-2-2-2-2-|-0-0-0-0-3-3-3-3-|-----2-2-2-2-2-2-2--|
4|---|---------3-3-3--3-|---------------------|---------3-3-3-3-|--------------------|

これを繰り返しだと思うけど・・・
わかんねw

347 :だりだり:05/03/04 22:14:46
メロディのとこ。
Gu1
2|---------------------|-10-10-10-10-10-10-10-10-|
3|--9--9--9--9-7-7-7-7-|-10-10-10-10-10-10-10-10-|
4|-10-10-10-10-8-8-8-8-|-10-10-10-10-10-10-10-10-|
5|-10-10-10-10-8-8-8-8-|--8--8--8--8--8--8--8--8-|
が基本で二小節目の後ろ四拍分が
2|-10-10------
3|-10-10------
4|-10-10------
5|--8--8--8/10

2|---10-10----
3|------------
に変化する感じ?
Gu2は
3|-------------------------|--2--2--2--2--2--2--2--2-|
4|--5--5--5--5--3--3--3--3-|--3--3--3--3--3--3--3--3-|
5|--3--3--3--3--1--1--1--1-|-------------------------|
をひたすら繰り返しかなァ。

PS,スワンキとアイキャンはちょっと手を出してすぐ挫折したw
   何日か後にやったらできるようになってないかなぁ

348 :hiro2:05/03/04 22:14:55
>>だりだりさん
 他にもBとB♭結構間違えてます(^^;
 ご指摘ありがとうございました。
 良夢のメロディーは真鍋さんのニューギターの音です。タブも合ってるかと思います。
 さわおさんは全くわかりませぬ。

クレームも少ないのでコード表はまだ続けたいと思います。
応援してくれてる方々ありがとうございますm(__)m

349 :だりだり:05/03/04 23:14:54
ぉぉ、PEEちゃんニューギターなんすか。
そういやどっかでPEEちゃんがレスポールだのなんのって話題を見たなw
最近あまりピロウズは熱心に追ってないため取り残されぎみですw

コピーしようって考えるときはまずヒロさんの所へ行くくらい
重用させて頂いておりますので、これからもどうぞ頑張ってください♪

350 :tdy:05/03/04 23:33:08
|'-')。o0(コソーリ)
PEEちゃんは銀っぽいエクスプローラーになったっすね。
あとグッドリのさわおは主にハイポジでC-B♭-Fm7を繰り返してた気が。

ところでギターな方に質問。耳コピむずいってのは、五線譜からタブ譜
への変換が難しいんですか? それとも音自体を拾うのがムズイっていう
ことなんでしょうか。


351 :だりだり:05/03/05 01:06:49
>>テディさん
レスポールはMy妄想だったか・・・・・赤面ものだw
グッドリのサワオはハイポジでコード引き・・・?むむぅ更に謎だw
どことなくプレーン弦(でいいのか?)っぽい音かな、なんて思ったんですが・・・
エフェクト等で信頼なら無いギターの音色を信用ならない自分の耳で聞いてもだめか・・・orz

五線譜があれば後はポジションで悩むくらいですので
たぶんだいたいは音を拾うのが辛いってことだと思います、端くれギターの意見ですがw

352 :眞鍋 吉明:05/03/05 10:25:14
ではでは、ここらで機材紹介などを...
現在メインで使っているのがお馴染み、
FenderJapanの94〜5年製のムスタング。リアピックアップのみを使用。
95〜6年製のムスタングをサブとして常にスタンバイ。
タミヘのプロモで使ってるのは、
ESPのCustomMade。ボブマーレー愛用のレスポールを模したもの。
ムスタングを使う(CARNVAL 99年)以前、メインとして使っていたのは、
Saymour DuncunのTraditionalSeriesの青いストラト。
そして、ライブ前の楽屋や、ホテル等で弾くのがFenderのMA-1。
他にも多数あります。(笑)でわでわまたまた。

353 :眞鍋 吉明:05/03/05 11:02:32
↑で、誤字発見です。
Saymour Duncunではなく、
Seymour Duncanに訂正します。

354 :だりだり:05/03/05 16:27:01
ほへー。真鍋さんありがとうございますw
てか真鍋さんアイシンクアイキャン教えてくださいよww

今ちょうどバスターオンザプラネッツを見て
フールのわかんなかったところを。

1||6--8----|5--8----|------------5-5--|--------0---
2||--6-----|-6------|------/6-6--6-6--|--------1---
3||--------|--------|-/7-7-/7-7-------|--------0---
4||--------|--------|-/8-8------------|8-7-5-3-2---
5||--------|--------|-----------------|--------3---
ポジションがハッキリしなかったデス。
1・2弦5・6フレットじゃなく2・3弦10フレのような気がします。
ただ音はこれでよさそうな予感。

真鍋さんは左手で要らない音をミュートするので
弾いてるとこ見てもわかりにくいですw

355 :だりだり:05/03/05 17:02:17
サビ後半部改訂。
3|4 6 6 4-6 8 8 6-8 10 10 8-10 12 12 10

3|--------------------------------(15)-(14)-(12)
4|14-14-14-12-14----12-14---12-14-(15)-(14)-(12)
5|12-12-12-12-12----12-12---12-12-(--)-(--)-(--)

3|---------------------14c
4|14-14-14-12-14----12----
5|12-12-12-12-12----12----

サビのとこのPEEちゃんのストローク
|D---------------|Em-------------
|G---------------|D--------------
|↓×↓×↓×↓×|↓↓××↓×↓×|
二小節目四小節目の二拍目のダウンストロークは1-4弦あたりを狙う感じっぽい。

356 :だりだり:05/03/05 17:03:03
>サビ後半部改訂。
サビ後半部じゃなくソロ後半部でした。

357 :だりだり:05/03/05 18:19:40
なんか最近ピロウズのコピーをしてるかネットを徘徊してるか
引越しの準備をしてるか寝てるかくらいだな、俺w

スワンキーは難しいです!

孤独を理解し始めてる〜♪の後
1|--------|----------|-----9----|-9------
2|--------|--8-10-12-|10-12-----|10------
3|6-7-9-7-|9---------|----------|-7------

2|--10/9---9--9----
3|------979--9-----
4|----------9--7---

どこまできても〜♪のとこ
 D===========C#m=============Bm=============A===========
1|---14----14-|----12------12--|----10------10--|---10----10-
2|------------|--14------14----|--12------12----|------------
3|14----14----|13------13------|11------11------|14----14----

 D===========C#m=============F#m=====B========
1|---14----14-|----12------12--|--------|----------
2|------------|--14------14----|--------|----------
3|14----14----|13------13------|------77|7779991212
4|------------|----------------|444666--|----------
5|------------|----------------|------55|5557771010
6|------------|----------------|222444--|----------

D-Dm-E---
ダンダダン〜♪

間違いだらけなことはわかってもどうしようもないもどかしさーw

358 :だりだり:05/03/05 20:40:28
グッドリは前スレで色々やられてたのは覚えてますけど
ソロなんてやってませんでしたよね?確か。

4|57|7---75--|---5----|--------|------10-
5|--|-------8|7-8-----|5----7--|7c-------
6|--|--------|-----8--|--------|---8-----

3|--------|---------|---9-10910|12121010-9-9-7-7
4|---10---|---10----|----------|----------------
5|8-------|87-------|87--------|----------------
6|-8------|---------|----------|----------------

忘れたれた〜 僕の夢〜 僕以外の〜 誰が見れる〜♪

359 :壁に耳あり、障子にメアリーさん:05/03/06 01:45:28
>>358
乙。
>>163でもやったけど、ポジ的にこっちのがかっけぇな。参考にさせていただく。

360 :だりだり:05/03/06 02:30:46
>>359
やってる人いたー!
ちゃんと確認しないとダメか・・・w
確認もせず失礼した。

ってか「忘れたれた〜」ってなんだ、自分w
あと少し訂正。
4|---10---|---12----|
5|8-------|87-------|
6|-8------|---------|
ビールを四杯飲んだだけで結構いい気分に慣れるようになったのは
幸せなことだとは思うが、酒に強かった自分が少し懐かしい(独り言

361 :壁に耳あり、障子にメアリーさん:05/03/12 07:50:00
アナザー・モーニングのコード進行キボンヌ・・・。

362 :名無し募集中。。。:05/03/12 21:21:21
>>361
つttp://homepage.mac.com/hiro2_mustang2/


363 :壁に耳あり、障子にメアリーさん:05/03/14 13:54:11
既出?
ttp://d.hatena.ne.jp/mikadiri/000102

364 :壁に耳あり、障子にメアリーさん:05/03/15 07:27:51
>>362
dクス。遅レススマソ・・・。

365 :だりだり:05/03/19 23:28:42
スワンキ ソロ終わりのとこ。

2|---10-9-7------------10-
3|----------9-7-6---------
4|7-7-------------9-7-7---

これぐらいしか取る自信ありませんでしたw(言い訳ですが時間が無いのですw)
暫く家を空けててコピれなかったわけですが、明日の引越しを
筆頭にまた忙しかったりするので、暫くこれないかもしれません。
戻ってきたらまた頑張りますです。

366 :だりだり:05/03/20 04:06:28
俺の名前はだりだり。
今日は昼前から引越しだというのに酒を飲みつつithinkのソロをコピーするも
ソロ入るところがわからない男。早起きだけは簡便な。
http://odin.prohosting.com/gawgaw/clip/img/2.zip

前スレでやったのも自分だったりしますw
あれよりは精度いいかもしれないけど、まだまだ力量不足。
F#m Em D→スライドオクターブ上のDってやる前のとこもわからんす。
ソロ入るとこはどの音をどうやって弾いてるんでしょうか?
PEEちゃんは低めのポジションで弾いてるように見えますがどの音かすらわからん・・・

367 :壁に耳あり、障子にメアリーさん:2005/03/24(木) 17:07:50
ロムってた者ですが、そろそろまとめサイトなど作ってみたらどうでしょうか?
難易度別とかに曲をわけて。。曲ごとにパートでわけて。。
自分にそんな気力はないんですが。。

368 :壁に耳あり、障子にメアリーさん:2005/03/24(木) 17:14:54
↑アルバム別とかにわけて難易度を表示してほしい

369 :壁に耳あり、障子にメアリーさん:2005/03/24(木) 18:02:38
>>367
お前が作れよ屑野郎

370 :壁に耳あり、障子にメアリーさん:2005/03/25(金) 00:47:18
俺耳コピできなくて、乙とかしかレスできなかったけど
まとめサイト作るぐらいならやりたい。

371 :壁に耳あり、障子にメアリーさん:2005/03/25(金) 01:04:09
コピオフみたいにwikiでページ作れば、
いろんな人が更新出来て良いと思う。
沢山溜まる前にスレとともにwikiを
更新すれば、たまに見やすく改変する程度で済むし。

372 :壁に耳あり、障子にメアリーさん:2005/03/25(金) 01:52:59
wikiだと確かに誰でも更新できて良いと思いますが、370さんの思いも無駄にはしたくないと思います。
バスターは皆さんいい人なので。。一部例外もいますが。

373 :だりだり:2005/03/25(金) 16:30:46
前スレの190くらいまでならアルバム別に分けたのがあるんでアップしてもいいです。
明後日以降になってしまいますが。

374 :だりだり:2005/03/28(月) 00:32:35
俺がレスしてから進んでない・・・w

少しおくれましたが約束どおり。
http://odin.prohosting.com/gawgaw/clip/img/3.zip

自分これから忙しい人間なんでマトメサイト作るとしてもお手伝いは出来ませんが
作るならば出来る限り応援いたします。

前スレで曲を決めて全パート完コピするって話がありましたが
あういうの素敵だな、と思うが自分は全然ダメw

375 :壁に耳あり、障子にメアリーさん:2005/03/28(月) 01:42:56
>>374
忙しい中サンクス!

376 :sage:2005/03/28(月) 19:20:25
助かりました

377 :壁に耳あり、障子にメアリーさん:2005/03/28(月) 23:50:48
全パートコピーか。
パワータブエディタって、ドラム譜も入れられるのかな?

378 :だりだり:2005/03/29(火) 00:43:11
ティンパニは入るみたいだけど・・・ドラムは見当たらなかった記憶が・・・
あれにドラムも入ればすごいいいんだが・・・

379 :壁に耳あり、障子にメアリーさん:2005/03/29(火) 10:25:59
ハイブリのソロ
1|----------3--|-5--7---------------|--------------2-3-2---10-|-10-----10-(10)--
2|------3------|------8-------------|--------------------3----|----8-8----------
3|----5--------|------------7-7-9-7-|--(7)--(7)---------------|-----------------

1|----------3--|-5--7---------------|--------------2-3-2------|----------------
2|------3------|------8-(8)-7-7-9-7--|-(7)--(7)-------------5-3--|---3-3----------
3|-------------|--------------------|-------------------------|----------------




380 :だりだり:2005/03/30(水) 18:05:49
ソロじゃなくイントロかな?

1|-------------3---|-5---7-3---------|-----2-2p3h2---2-|/10---10-----10---|
2|---------3-------|---------3-3p5h3-|-------------3---|-----8----8-------|
3|-------0---0-----|-----------------|-----------------|------------------|

1|-------------3---|-5---7-3---------|-----------------|------------------|
2|---------3-------|---------3-3p5h3-|-----------------|------------------|
3|-------0---0-----|-----------------|----11-c11-9-7---|-4-4v7--4-4v7--v4-|

拍には正確にあってないです。なんとなくで弾いてくださいw

もしトリビュートの方のソロがそんな感じだとしたら赤面しときます。

381 :壁に耳あり、障子にメアリーさん:2005/04/02(土) 18:20:15
ギター初めて2週間くらいの者ですが、ザビエルって難しいですか?
簡単なほうなら最初に耳コピしようと思うのですが。。。

382 :壁に耳あり、障子にメアリーさん:2005/04/02(土) 19:40:57
簡単。

383 :壁に耳あり、障子にメアリーさん:2005/04/03(日) 00:13:52
ギター始めて2週間で耳コピに走るのはどうかと。
タブ譜がある曲で簡単な曲からやるべき。
アイキャンとか。

384 :かとう:2005/04/03(日) 04:19:32
ギター歴二週間で耳コピ大いに結構じゃないですか
良く耳コピできないんでとか簡単に言う人いますが
耳コピはできるできないじゃなくてやるやらないの物だとおもってます

385 :壁に耳あり、障子にメアリーさん:2005/04/03(日) 14:56:59
まあ、ベースだったら最初から耳コピも可能だが、
ギターは単音じゃない分、大変なのは事実。

タブ譜が有る曲も、耳コピしないとならない曲も
両方やるのが良いかと。
耳コピは曲の難易度にもよるが
最初は時間がかかるだろうからがんばって。

386 :壁に耳あり、障子にメアリーさん:2005/04/03(日) 17:08:50
ありがとうございました。
タブ譜の練習をもう少ししてから、平行してやりたいと思います。

387 :壁に耳あり、障子にメアリーさん:2005/04/04(月) 15:50:04
ギター難しいな。
カラオケだとキー3つ下げるんだけど、ギターの場合3fにカポつけたらいいの?

388 :だりだり:2005/04/04(月) 19:04:15
キー三つ下げだとラの音がファ#になるんだけど
カポを3フレにつけるとラの音がドになる。
よって間違い、のはず。

9フレならいいかなwめっさ弾きにくいと思うけどw

389 :壁に耳あり、障子にメアリーさん:2005/04/04(月) 19:46:22
あ〜そうか3fだと3つ上がるのか。。

390 :かとう:2005/04/05(火) 01:54:22
http://www.yonosuke.net/clip/5/16338.mp3

オレンジフィルムガーデンの山中さんパートをとってみました譜面はそのうち

391 :xavier:2005/04/05(火) 19:53:27
xavierのコピー始めたんですが、難しいです。。
何かヒントもらえませんか?

392 :壁に耳あり、障子にメアリーさん:2005/04/06(水) 00:04:11
↑海外オタサイトのタブ譜にあった気がする。
コピオフwikiのtablinkからどぞ。

393 :壁に耳あり、障子にメアリーさん:2005/04/06(水) 01:58:20
pillowsスコア出せば絶対売れるのに…

394 :壁に耳あり、障子にメアリーさん:2005/04/06(水) 13:12:02
許可出さないんだろ。
俺コードも多いし。

395 :壁に耳あり、障子にメアリーさん:2005/04/08(金) 11:05:25
>>390
バックで音源いれちゃうのはまずくないか?
著作権とか、アレが、な。

まあとりあえずよくがんばりました、
ピッキング力み過ぎ、あと弾く時ずっと同じポジションじゃない?
単音は根元で弾くとクリア、フレットに寄ると柔らかくっつーのがあるんで
フレーズとかコードに合わせて弾く場所気つかってみ。
そのくらいならすぐできると思うよ

396 :壁に耳あり、障子にメアリーさん:2005/04/09(土) 22:27:31
>>395
390じゃないけど勉強になったよ。ありがと

397 :バブル:2005/04/10(日) 04:04:45
http://homepage.mac.com/hiro2_mustang2/guiter/pillows_exp.html
http://kyokoscafe.net/pirouzu/
http://www.ultimate-guitar.com/tabs/pillows_tabs.htm
http://d.hatena.ne.jp/mikadiri/000101  ほらよっ

398 :壁に耳あり、障子にメアリーさん:2005/04/11(月) 21:43:29
スクワイヤーのサイクロンが日本上陸するらしい。
欲しいなぁ。。。安いし。。。

399 :壁に耳あり、障子にメアリーさん:2005/04/12(火) 13:34:53
>>398
詳しく!っていうか調べる!情報サンコス!!

400 :壁に耳あり、障子にメアリーさん:2005/04/12(火) 14:38:13
http://www.fender.jp/squier/products/vintage_eg_02.html

これか

401 :sage:2005/04/12(火) 17:16:44
Blue Metallicの色がめちゃきれいだ

402 :壁に耳あり、障子にメアリーさん:2005/04/12(火) 19:11:37
黒のサイクロンを、シングルとハムの上のほうのピックアップを黒に変えたら。。。
さわおサイクロン反転モデルになるんじゃないか?
普通に欲しいんだけど。
白い夏とぉ〜緑の自転車ぁ〜赤い髪とぉ〜黒いギタァー!


あ、フェンダーも秋に黒サイクロン出すね。

403 :壁に耳あり、障子にメアリーさん:2005/04/15(金) 14:46:21
とりあえずブラック買ってリフするわ。
見た目は限りなくさわおサイクロンに近づけてみる。ピックアップは自分のお気に入りマウントするけどね。


404 :だりだり:2005/04/15(金) 20:33:14
テディ姉さんに教えてもらった音を頼りにパトルゥゥゥリィシィァア(巻き舌で)

1|------------------|-----------------|------------------|
2|--------------10--|-9-7-------------|------------------|
3|-9-7---6--9-------|-----9-8---4---2-|-2--1-2---4--6----|

1|------------------|------------------||---------------|--------------|----------|
2|--------------10--|-9-7--------------||---------------|--------------|----------|
3|-9-7---6--9-------|-----9-8---4---2--||-2-2--1-2--1-4-|-6--6-4--4-2--|-2-1--1---|

区切りの位置は全然違いますが大筋音はあってるかと
(ってか音教えてもらって全然ダメだったらヤヴァイw)
PTBでうまくできそうにないんでダメリズムのまま出力w

ここで一句。
弾いて見て 初めて気付く 四分の三

405 :だりだり:2005/04/15(金) 20:34:32
四分の三は違うかwどう言えば良いんだかわからんw

406 :壁に耳あり、障子にメアリーさん:2005/04/16(土) 01:31:05
シャッフル

407 :壁に耳あり、障子にメアリーさん:2005/04/16(土) 02:05:38
シャッフル知らないにしても3/4ねーべせめて2/3といってくれ

408 :壁に耳あり、障子にメアリーさん:2005/04/16(土) 02:09:05
2/3はもっと違うだろw

409 :壁に耳あり、障子にメアリーさん:2005/04/17(日) 05:28:21
4/4な気がしてきた。

410 :壁に耳あり、障子にメアリーさん:2005/04/17(日) 09:13:24
4/4中抜きとドラムなら言う。

411 :だりだり:2005/04/17(日) 23:06:13
2|----10---8--------|----------------|----10---8--------|-----------------|
3|-----------10---9-|-(9)-6--7--9-7---|-----------10---9-|-(9)-6--7--9-7-5-|
4|-7----------------|----------------|-7----------------|-----------------|

さて、また大体音をとってもらってのコピー、自分でやれとは言わないでw
最初がオクターブであることが全然わからず5度くらいかなぁってやってたw

今日(昨日)TVでかかったwhite ashっす

412 :だりだり:2005/04/17(日) 23:14:10
あー、大きく間違えてしまいました。
教えてもらったのに、適当にやってしまった・・・w
3弦の10フレじゃなく8フレでそのあと適宜ヨロw

413 :壁に耳あり、障子にメアリーさん:2005/04/20(水) 20:37:54
そういえば、日曜日かかってましたね。
まさかあんなニュースで使われるとはw
white ash 参考にさせていただきます。

414 :壁に耳あり、障子にメアリーさん:2005/04/26(火) 19:12:19
http://www.mysongbook.com/?msbp=eng%2Ctab%2Cartist_list&keyword=pillows&imageField.x=0&imageField.y=0
こんなもんあったお

415 :名無しのエリー:2005/04/26(火) 20:35:23
http://homepage.mac.com/hiro2_mustang2/guiter/pillows_set.html
くれてやるよ

416 :壁に耳あり、障子にメアリーさん:2005/04/26(火) 21:26:26
>>415
hiro2さん直リンすんなって言ってなかったっけ・・・

417 :壁に耳あり、障子にメアリーさん:2005/04/27(水) 23:37:55
前スレの白夏のイントロのリフ弾いて泣きました。
これを蝦夷で聞きたいぞ。


418 :壁に耳あり、障子にメアリーさん:2005/04/28(木) 00:32:23
明日はアラバキだ!

419 :壁に耳あり、障子にメアリーさん:2005/04/28(木) 15:13:06


420 :壁に耳あり、障子にメアリーさん:2005/04/30(土) 20:21:43
最近書き込みがなくてさびしいのでピロウズ関係ないけど投下。

4|--------|--------|-----42-|-----42-
5|---25---|---25---|---25--5|---25--5
6|004-----|004-----|004-----|004-----

4|-----42-|--------
5|---25---|---25---
6|004-----|004-----

弾いてみてちょっとニヤっとしていただければ幸い。

421 :壁に耳あり、障子にメアリーさん:2005/04/30(土) 23:18:17
ぷりりうーまん

422 :壁に耳あり、障子にメアリーさん:2005/05/01(日) 00:31:11
トワイライトの「サンキュマイトワイラーイト」の後のギターがマジカッコいい。
誰かコピって下さい

423 :壁に耳あり、障子にメアリーさん:2005/05/01(日) 18:22:34
ハイブリの真鍋さんのパートとベースのライヴバージョンのコードを
教えてください。

424 :壁に耳あり、障子にメアリーさん:2005/05/01(日) 20:21:41
>>423
DVD買え

425 :だりだり:2005/05/01(日) 20:28:01
ラストのサンキューマイトライライトって二回叫んで次のサンキューマイトライライトから
入るPEEちゃんギターは

2|1-1-1-1-2-2-2-2-3-3-3-3-2-2-2-2-
3|2-2-2-2-2-2-2-2-2-2-2-2-2-2-2-2-

って感じすかね。クラギ片手にとったので微妙w
それじゃなければ大体コードに色加えたものだと思うんでやっきになってとるものでもないかと。
ってか>>442じゃどこだか、どのパートだかもよくわからんす。


426 :壁に耳あり、障子にメアリーさん:2005/05/01(日) 21:00:12
>>442
おいおい、それじゃどのパートかよくわかんねーってよ

427 :壁に耳あり、障子にメアリーさん:2005/05/01(日) 22:29:11
>>442
ちゃんとわかりやすく説明しる!!!!!!
俺も全然わかんねぇYO!!!!!!!!!

428 :壁に耳あり、障子にメアリーさん:2005/05/01(日) 22:39:18
バビロン間奏PEEちゃん。
携帯だからズレてるだろうよ。
1|--7---7---------10---10
2|-8-------10----10--------12
3|9---9---9-----11---11---11
1|--7---7---------10---10-12-14
2|-8-------10----10---
3|9---9---9-----11--11--11-11--



429 :壁に耳あり、障子にメアリーさん:2005/05/01(日) 22:40:23
バビロン間奏PEEちゃん。
携帯だからズレてるだろうよ。
1|--7---7---------10---10
2|-8-------10----10--------12
3|9---9---9-----11---11---11
1|--7---7---------10---10-12-14
2|-8-------10----10---
3|9---9---9-----11--11--11-11--



430 :だりだり:2005/05/01(日) 23:07:35
ごめんなさい、俺が>>422>>442って書いた所為でその後みんな442とアンカーミスw
申し訳ないw

>>428
ステキっすねぇ。
シーシーラーって目立つ音ぐらいしか自分にはとれなそうで
尊敬しちゃうっす。

431 :壁に耳あり、障子にメアリーさん:2005/05/01(日) 23:16:03
バビロン間奏PEEちゃん。
携帯だからズレてるだろう。ちょっと訂正。
1|--7---7---------10---10--------
2|-8-------10----10---------12---
3|9---9---9-----11---11---11-----

1|--7---7---------10--10---12-14-
2|-8-------10----10--------------
3|9---9---9-----11--11---11-11---

さっき2回書き込んじゃってすみません。



432 :423:2005/05/02(月) 00:03:18
いや、DVDは持ってます。
リードギターとベースを楽譜にあらわしてほしいのです。

433 :壁に耳あり、障子にメアリーさん:2005/05/02(月) 02:08:26
>>432
あるならそれで勉強しろよ

434 :壁に耳あり、障子にメアリーさん:2005/05/02(月) 09:37:41
DVD見て譜面にしろ

435 :壁に耳あり、障子にメアリーさん:2005/05/02(月) 09:43:04
あ、ギターは全くわからないが、
ベースは初心者でも耳コピ簡単に出来るぞ。
自分はDVD持ってないが、ベースに限ればCDだけで十分。
hiro2さんのサイトのコード進行を参考にしながら、あとは耳コピで。

436 :壁に耳あり、障子にメアリーさん:2005/05/04(水) 00:52:56
DVDのベースパートは一回見たが
ベースはなんかよくわかんねぇな、で済ませたギタリストです、はいw
同じフレット付弦楽器なのにw

437 :423:2005/05/04(水) 13:45:52
俺CDだとベース聞き取れない

438 :壁に耳あり、障子にメアリーさん:2005/05/04(水) 14:57:38
>>437 俺耳コピとかまったくやった事ないダメ男だけど、ベースは
和室のテーブルの上にCDラジカセ置いて、その下に寝っ転がってるとよく聞き取れるよ

「俺ん家全部洋室だからできない」ってのはナシね

439 :壁に耳あり、障子にメアリーさん:2005/05/04(水) 23:48:19
ハイブリ、オレがDVD見たらこんな感じ
イントロ&Aメロ
3|----22223333222355553333------------5555333322235555-----------
4|3333--------------------333333333333----------------02-33333333

Bメロは
3|33333333------------------------33333333---------55555555
4|--------333333335555555500000000--------33333333---------

サビ  
3|33333333------------------------333333〜99aaaaaaaa5555555533333333
4|--------333333335555555500000000----------------------------------

ソロ前ベース 
3|1--3-1-3-1--〜aaaaaaa

オレはこんな感じで弾いてるけどどう?

440 :壁に耳あり、障子にメアリーさん:2005/05/05(木) 12:32:09
ベーシストではないが家にあるベースを弾いてみるといい感じでした〜。

441 :壁に耳あり、障子にメアリーさん:2005/05/06(金) 23:42:32
こんなんなった

http://www3.alpha-net.ne.jp/users/zbm27871/pillows.htm


442 :壁に耳あり、障子にメアリーさん:2005/05/08(日) 21:41:05
PCからだと人大杉で見られないのね。


443 :壁に耳あり、障子にメアリーさん:2005/05/08(日) 22:19:59
>>441
おっ!まとめサイトか?
でもアドレス削るとアニメ系ってどーゆー事よ。
ライジンオーとか懐かしすぎ…

444 :壁に耳あり、障子にメアリーさん:2005/05/09(月) 00:25:16
ハイブリッドレインボウのPeeちゃんのパートのギターが弾きたいんですけど
押さえてるとこはわかるんだけど どこの弦をピッキングしてるのかわかりません
教えてください(ノД`、)

445 :壁に耳あり、障子にメアリーさん:2005/05/09(月) 01:08:10
>>444
1 2 3弦使って適当にやれば大体わかるかと

446 :壁に耳あり、障子にメアリーさん:2005/05/09(月) 22:48:22
>>441
うぎゃー。上の方はころ助とガンダムしか分からないけど、
羅針盤とかディーパーズとかマイブラとかニューウエーブとかあんた趣味素敵杉ですわ!
頑張って下さい!!

447 :オフ幹事:2005/05/09(月) 23:52:28
オフスレからやってきました。みのと申します。

すみません、やっとupまで辿り着きました。
(誰も見ていないかもしれませんが)
4/24に行った第3回コピーオフのダイジェストです。
頭にh、パスワードはメール欄です。

ttp://storehou.se/upload/src/up0162.zip
ttp://storehou.se/upload/src/up0163.zip
ttp://storehou.se/upload/src/up0164.zip

宜しくお願いします。

演奏曲、演奏者などは以下のページより、
ttp://wiki.fdiary.net/pillowssession/
Front Page → 演奏曲一覧(終了分)の中、
第3回の表を参照下さい。

448 :壁に耳あり、障子にメアリーさん:2005/05/10(火) 23:05:57
0162dake
otosenaipo

449 :壁に耳あり、障子にメアリーさん:2005/05/11(水) 12:01:32
あー取り逃したorz
もう一回upを…

450 :壁に耳あり、障子にメアリーさん:2005/05/11(水) 15:23:50
再うpお願いします…

451 :壁に耳あり、障子にメアリーさん:2005/05/11(水) 18:01:10
>>441
アニソンのスレでもおせわになってます

452 :オフ幹事:2005/05/11(水) 20:32:47
再upしました。
頭にh、パスワードはメール欄です。

ttp://storehou.se/upload/src/up0172.zip
ttp://storehou.se/upload/src/up0173.zip
ttp://storehou.se/upload/src/up0174.zip

宜しくお願いします。


453 :壁に耳あり、障子にメアリーさん:2005/05/12(木) 16:09:21
>>452

もうなくなってる... orz

454 :みの:2005/05/12(木) 21:46:58
>>453
ttp://www14.axfc.net/uploader/1/
[No_0415.zip]
[No_0414.zip]
[No_0413.zip]

です。前とは違うところにしました。
直リンできない作りらしいので、お願いします。
ヒントはダブルクリックです。パスはメール欄。

455 :壁に耳あり、障子にメアリーさん:2005/05/13(金) 15:24:48
ペナルティーライフのほうの僕はかけらのコピありませんか?

456 :壁に耳あり、障子にメアリーさん:2005/05/15(日) 01:26:47
>>455
ttp://wiki.fdiary.net/pillowssession/
のtablinkから飛んでいけば何処かにありました。

457 :壁に耳あり、障子にメアリーさん:2005/05/15(日) 02:23:17
ライドンのサビでPeeちゃんが何やってるか全然わからん・・

458 :だりだり:2005/05/15(日) 12:08:11
パワーコードで
GGGGGABAAAAD-DDD
GGGGGAAABBBBBBBB
って感じだと自分は思ってましたが実際どうなんでしょね。

459 :壁に耳あり、障子にメアリーさん:2005/05/16(月) 14:03:09
Good dreamsのptbかgp4ファイルほしいんですけど

460 :壁に耳あり、障子にメアリーさん:2005/05/16(月) 20:42:46
何様だお前
しかもそんなマイナーな海外ソフト誰が使ってンだよ

461 :壁に耳あり、障子にメアリーさん:2005/05/16(月) 21:07:53
殿様

462 :壁に耳あり、障子にメアリーさん:2005/05/16(月) 21:44:10
>>458
もっとチョロチョロなんかしてるんじゃないかな
「心の声で」のあととかね。

463 :壁に耳あり、障子にメアリーさん:2005/05/16(月) 22:43:54
>>459
過去レス見ろ、氏ね

464 :壁に耳あり、障子にメアリーさん:2005/05/16(月) 23:28:12
一気にノビタ━━━━━━(゚∀゚)━━━━━━ !!

465 :壁に耳あり、障子にメアリーさん:2005/05/16(月) 23:51:12
まぁ落ちつきなよ

466 :壁に耳あり、障子にメアリーさん:2005/05/18(水) 22:49:22
ビバークの前奏のPeeちゃんパートをコピった人いますか?

467 :壁に耳あり、障子にメアリーさん:2005/05/19(木) 00:07:49
すれちがい・・・じゃないよな?
ライドンのpeeちゃんコーラスだれかコピってくれええ!!

468 :壁に耳あり、障子にメアリーさん:2005/05/19(木) 17:38:00
PEEちゃんコーラスってことは
「スパイダー」「スナイパー」のとこ?

469 :壁に耳あり、障子にメアリーさん:2005/05/19(木) 18:49:55
ttp://www.tanomi.com/metoo/naiyou.html?kid=34618
ttp://www.tanomi.com/metoo/naiyou.html?kid=33802

こんなんみつけたよ。オンラインバンドセッションって、
オフスレ・耳コピスレで出来ればって言ってたやつだよね。

何か叩くと音がするドラムスティックってどうなんだろ。

470 :467:2005/05/20(金) 00:03:35
え?
スパイダ〜からサビおわるまでずっとpeeちゃん入ってない?
スナイパ〜からも

471 :壁に耳あり、障子にメアリーさん:2005/05/21(土) 00:43:32
オンラインセッションは正直無理だと思う。
ニューヨークと電話するときのタイムラグを考えれ。

まあ音をMIDIに変換するとしてもその処理は、そんなに軽い処理じゃないし
ネットでの通信(パケット通信)には電話の通話(回線占有通信)よりさらにタイムラグが生じる。
さらにドラム・ベース・ギター・ボーカルで四人だとしたら、
受信解析・ミキシング等でやっぱりある程度時間は必要になる。

今なってる音じゃなくて2秒後になる音を予想して弾けるならいけるかもw

ハッピービバークは過去にJPGであがってたかな。
ログ探してもファイルはノットファウンドの可能性大。

472 :423:2005/05/21(土) 14:06:22
いいなあ、コピー、やりたいなあ。。

提案してみよ。

473 :壁に耳あり、障子にメアリーさん:2005/05/21(土) 14:07:04
名前誤爆↑OTZ

474 :壁に耳あり、障子にメアリーさん:2005/05/21(土) 14:08:38
単純な質問でスマソなんですけど、
ストカメの♪ナンナナーナーからのコードって、C-G-の繰り返しですよね?

475 :壁に耳あり、障子にメアリーさん:2005/05/21(土) 16:38:06
ガイシュツでないtabサイトを沢山みつけた。
スレとか、wikiとかに書き込んじゃまずいかな。
っうことで、
http://www11.axfc.net/uploader/1/
[No_1755.zip]
パスはメル欄です。


476 :壁に耳あり、障子にメアリーさん:2005/05/21(土) 16:39:19
"h"をとり忘れたorz
逝ってきます。

477 :壁に耳あり、障子にメアリーさん:2005/05/21(土) 18:04:43
>>475
ウホッ!!

478 :壁に耳あり、障子にメアリーさん:2005/05/21(土) 20:12:24
今、例のwikiから直リンしているサイトも消さないとまずいかね?
情報の共有とはいえ、
「ノートパッドパス付zip固めデータ」で、
もうちょっと複雑な場所に置いた方が良いかな。
最近ではyahoo!から検索すると、
耳コピスレとオフスレとwikiが一番上に出てくるし。

479 :壁に耳あり、障子にメアリーさん:2005/05/21(土) 20:51:50
http://www.taborama.com/archive/artist.php?id=2358&a=Pillows
http://www.911tabs.com/tabs/pillows/
http://www.guitartabs.cc/tabsearch.php?artist=pillows&exact=on
http://www.fretplay.com/tabs/p/pillows/
http://www.mxtabs.net/songs.php?path=Guitar,t,14648,The+Pillows
http://www.azchords.com/t/thepillows-tabs-4223.html
http://www.bassmasta.net/p/pillows,_the/
http://www.mysongbook.com/tab-tab_list-id_artist=6163.htm
http://www.powertabs.net/pta.php?page=song,16236

480 :壁に耳あり、障子にメアリーさん:2005/05/21(土) 20:52:02
http://www.tabheaven.com/tablature.php?aid=11859
http://www.all-good-tabs.com/guitar-tabs-bands-the_pillows-9571.html
http://www.hamienet.com/cat10610.html
http://www.guitarmasta.net/p/pillows,_the/
http://www.cjas.org/~smoo/tabs.htm
http://www.olga.net/dynamic/browse.php?local=main/p/pillows/
http://www.mistertab.com/tabs/p/Pillows/
http://www.geocities.com/kyosuke_66/TABS.html
http://www.tokyomokyo.com/music/tabs/pillows/
http://www.dokterz.nl/modules.php?name=Blorp&path=P%2Fpillows

481 :壁に耳あり、障子にメアリーさん:2005/05/21(土) 21:28:22
折角↑でどうしたら良いかきいてるんだからわざわざ広げなくても。
それとも直リンはあまり問題じゃないのか?

482 :壁に耳あり、障子にメアリーさん:2005/05/21(土) 22:51:05
もう貼られちゃったから言うけど、外人って2chからのリンクとか喜びそうなイメージがある。

483 :壁に耳あり、障子にメアリーさん:2005/05/21(土) 23:14:40
あー確かに。w
ずーっと前、どっかで翻訳ソフトなレスを見た気がする。

484 :壁に耳あり、障子にメアリーさん:2005/05/22(日) 10:00:59
外人のサイトだし問題ないだろ

485 :壁に耳あり、障子にメアリーさん:2005/05/22(日) 12:31:47
つうか、h抜いてないし誰だアホは。

486 :壁に耳あり、障子にメアリーさん:2005/05/22(日) 12:39:32
h抜いても専ブラなら意味無いけどな
海外サイトだし問題無いんじゃねーのか?
投稿形式のも多いみたいだし

487 :壁に耳あり、障子にメアリーさん:2005/05/22(日) 14:26:51
携帯ならh抜いたurlでも見られるね。
どの携帯でもそうじゃなくて?

488 :壁に耳あり、障子にメアリーさん:2005/05/22(日) 18:48:25
カーニバルのイントロをやっと弾けるようになった程度の初心者なんだけど、
曲の中でジャカジャカ弾くだけだとなんか物足りないので、なんかカッコいいフレーズないかな?
初心者が生意気なこと言ってごめん。

489 :壁に耳あり、障子にメアリーさん:2005/05/22(日) 19:15:21
そのリフ使って、間奏を竹善バージョンのOP風にしてみては?

ごめん想像してみたらカッコ悪いかも

490 :壁に耳あり、障子にメアリーさん:2005/05/22(日) 19:42:48
あ〜それやったことあります。個人的には元祖の方がかっこよいと思いますた

491 :壁に耳あり、障子にメアリーさん:2005/05/22(日) 19:46:26
ごめんあげてしまった

492 :壁に耳あり、障子にメアリーさん:2005/05/22(日) 23:20:44
>>488

-|c-------|g-------|d-------|c-------(コード名)

1|0---0---|3--33--3|2--22--2|0---0---
2|1-011-01|3--33--3|32233223|1-011-01
3|00--00--|0-0-0-0-|2--22--2|00--00--
4|2---2---|00--00--|0---0---|2---2---
5|3---3---|2---2---|--------|3---3---
6|--------|3---3---|--------|--------

コードビキをこんな感じで他の弦鳴らしちゃっても良い感じで
(というか他の弦も鳴らした方がよい)
弾くと少しそれっぽくなるかも。自分アコギでこうやって弾いたりしてた。
あくまでCの形、Gの形、Dの形は崩さないように(他の弦がなってもおかしくならないように)弾いてくだされ。

493 :壁に耳あり、障子にメアリーさん:2005/05/23(月) 22:00:57
自分で耳コピをしてみたり海外サイトなどを探したりしましたが
どうしても「この世の果てまで」の
ベースがわかりません
どなたかわかる方がいられましたらぜひご教授下さい
お願いしますorz

494 :493:2005/05/24(火) 22:20:34
何度もスイマセン
この世の果てまでのベースはコードから言うと
イントロ&Aメロ
3|777777------444444------------------------------
4|------777777------444444555555444444555555777777

サビ  
3|------333333777777444444------------777777777777
4|555555------------------555555777777------------

3|------333333777777444444------------777777------
4|555555------------------555555777777------777777

だと思うんですがこれであっているのでしょうか?
初心者でスイマセン

495 :488:2005/05/25(水) 12:41:51
>>492
やってみたら結構響きが違ってくるもんなんですね。
色々勉強になりました。どうもありがとう。



496 :488:2005/05/25(水) 12:41:59
>>492
やってみたら結構響きが違ってくるもんなんですね。
色々勉強になりました。どうもありがとう。



497 :488:2005/05/25(水) 12:42:04
>>492
やってみたら結構響きが違ってくるもんなんですね。
色々勉強になりました。どうもありがとう。



498 :488:2005/05/25(水) 12:42:37
ごめん

499 :壁に耳あり、障子にメアリーさん:2005/05/25(水) 16:11:41
(;゚д゚)・・・。

500 :壁に耳あり、障子にメアリーさん:2005/05/25(水) 23:59:32
あえて言う あたたかく見守ろうと!

501 :壁に耳あり、障子にメアリーさん:2005/05/26(木) 01:42:31
このスレを久々に見て
スクワイアのサイクロンの存在を知りました。
かなり欲しい・・・

あれの青色は昔peeちゃんが使ってたストラトと
同じような色だね

502 :壁に耳あり、障子にメアリーさん:2005/05/26(木) 12:00:47
>>501
しかし所詮スクワイア

503 :壁に耳あり、障子にメアリーさん:2005/05/28(土) 17:13:59
それを言ったらさわおは所詮メキシコだしPeeちゃんも所詮ジャパンじゃね?

504 :壁に耳あり、障子にメアリーさん:2005/05/29(日) 12:23:58
腕があれば問題ないんじゃね?

505 :壁に耳あり、障子にメアリーさん:2005/05/30(月) 00:20:51
ライブのときの最後の「ジャン!」はどこを押さえてるかわかりますか?

506 :壁に耳あり、障子にメアリーさん:2005/05/30(月) 00:21:17
あー、ageちゃった。ごめんさない

507 :壁に耳あり、障子にメアリーさん:2005/05/30(月) 17:40:24
>>505
その曲のキーをTとしてXのキーだよ。

508 :壁に耳あり、障子にメアリーさん:2005/05/30(月) 23:25:38
ディジーライフ聴いたけど、さわお案外ギター上手く内科?

509 :壁に耳あり、障子にメアリーさん:2005/05/31(火) 01:01:41
うーん。。。上手いとか判断する手のプレイじゃ無く内科?

510 :壁に耳あり、障子にメアリーさん:2005/05/31(火) 07:19:29
とりあえずディジーライフの音源をなんとかしてくれ内科?

511 :壁に耳あり、障子にメアリーさん:2005/05/31(火) 20:58:39
うpのヤツだししょうがないじゃないか

512 :壁に耳あり、障子にメアリーさん:2005/06/01(水) 21:49:34
プレデタスレで言われてたが、‘ぬれせんべのようなほわほわしたギター’ワロタ

513 :壁に耳あり、障子にメアリーさん:2005/06/04(土) 00:45:54
PILLOWS新曲出すってな。通信に書いてあった。
超楽しみ

514 :壁に耳あり、障子にメアリーさん:2005/06/05(日) 02:04:05
ごめんな、バンド仲間のみんな。
俺、ピロヲタだから「オーイェー」を全部(無意識のうちに)「アウイェー」
って言っちゃうんだ。
別にわざとじゃないんだ。
ふざけてないから許して。

515 :壁に耳あり、障子にメアリーさん:2005/06/05(日) 03:02:10
俺とバンド組もうぜ
ちっとも気にしないからよ

516 :壁に耳あり、障子にメアリーさん:2005/06/05(日) 22:56:14
いやいや俺と組もうぜ、気にしないどころか一緒にアウイェするから

517 :壁に耳あり、障子にメアリーさん:2005/06/06(月) 00:24:43
むしろコピオフ参加しないか?アウイエ大歓迎だからさ。

518 :壁に耳あり、障子にメアリーさん:2005/06/06(月) 01:48:36
馬鹿いうな!514は俺のだって言ってんだろ!
な?だから俺とアウイエしようぜ?

519 :壁に耳あり、障子にメアリーさん:2005/06/06(月) 02:06:02
アウイェついでに聞いてみよう

ノーセルフコントロールのBメロ最初のアウイェェェ!の
あとの甲高いギター音、あれどこ押さえてんだろね?

520 :514:2005/06/07(火) 22:25:09
残念、俺、田舎にいるからバンド組めない。

BUMP→pillowsと来た俺にはもうBUMPはまともに歌えない。
今というほうき星キミぃと二人 追いかぁけてぇた アウイェエェアハァン!!
と、カラオケでつい歌って「変なオプションつけたな」って言われたw

521 :壁に耳あり、障子にメアリーさん:2005/06/07(火) 22:42:21
初めまして。宜しかったら教えていただきたいのですが、
フールオンザプラネットのギターソロ終わった後のCメロだとよくわかりやすいんですが
あの曲で使ってるコードを弾いてる方のギターのエフェクターってなんていう種類のものなんですか?

522 :壁に耳あり、障子にメアリーさん:2005/06/07(火) 22:56:06
スイマセン521のものなんですが・・・間違えました!
ギターソロの後のAメロの間違いです!
あのライブとかでもつかってるようなジャカーンとかジャキーンって感じのストロークの時に使うようなエフェクターの事です。
宜しくお願いします。

523 :|電柱|・Д・) y-~~ ぬるぽ ◆ljcWNullPo :2005/06/08(水) 00:35:47
びばーぐあっぷしますか?また。

524 :|電柱|・Д・) y-~~ ぬるぽ ◆ljcWNullPo :2005/06/08(水) 00:38:32
ttp://www.secret.ne.jp/~dame2/gt/happy.jpg

音悪いけどこぴった音。
ttp://www.secret.ne.jp/~dame2/gt/happy.mp3

525 :|電柱|・Д・) y-~~ ぬるぽ ◆ljcWNullPo :2005/06/08(水) 00:56:59
ぴろうずこぴったきょくりすと

Walkin' on the spiral(イントロだけ。その他はコードだけ。)
カーニバル(歌いながら弾ける。イントロ簡単。後はコード進行。)
Come on, Ghost(ソロ以外。簡単。)
その未来は今(イントロ。その他はコードだけ。)
バビロン(何となくリフコピ。)
xavier(パターン覚えれば簡単。)
swanky street(何となくコードだけ。)
RUSH(超簡単。)
LIBETY(何となくコードだけ。)
ROBOT MAN(コードだけ。)
Tiny Boat(コードだけ。)

細かいところコピれるんだけど、いかんせんめんどくさい。

あと>>524の音源は鯖から消してた(ノ∀`*)ノ.☆.。.:*・°゚・*:.。. .。.:*・゚゚・*

526 :壁に耳あり、障子にメアリーさん:2005/06/08(水) 01:03:05
>>525
カーニバルきぼん

527 :|電柱|・Д・) y-~~ ぬるぽ ◆ljcWNullPo :2005/06/08(水) 01:33:51
ttp://www.secret.ne.jp/~dame2/gt/carnival.jpg
イントロだけ。

528 :壁に耳あり、障子にメアリーさん:2005/06/08(水) 16:54:50
>>520
BUMP→pillowsと来た俺にはもうBUMPは聞けない

529 :壁に耳あり、障子にメアリーさん:2005/06/08(水) 17:03:20
>>525
よければ全部きぼん

530 :壁に耳あり、障子にメアリーさん:2005/06/08(水) 18:12:02
ドラマーに聞かせるならどの曲が良いかねぇ…?

531 :|電柱|・Д・) y-~~ ぬるぽ ◆ljcWNullPo :2005/06/08(水) 18:23:48
RUSH
ttp://www.secret.ne.jp/~dame2/gt/rush.xls

運指だけ書いてるから、後は雰囲気で弾いて。


532 :壁に耳あり、障子にメアリーさん:2005/06/08(水) 23:21:38
>>530
ワンライフ、カーニバル、ラッシュ、バビロン、ビバーク、ストカメ、
ハイブリ、ザビエル、バッドリ、グッドリ、THR、ナイトメア、
カムダウン、ルディー、ベインドッグ、サンダー、ライドン、
クレイジー、アドバイス、ノーセルフ、

自分なりにシン様風味のドラム満載の曲をえらんでみた。
この他でも、>>530自身がドラムバンド的な曲だと思うものを選べば良いと思う。
まぁ、毎月ドラマガ読んでいて、神保だ、菅沼だ言ってるような椰子には、
シン様のドラムは好まれないとは思うが。

533 :530:2005/06/09(木) 22:03:27
>>532
サンクスコ
聞かせてみるよ

534 :sage:2005/06/11(土) 13:07:06
今1週間で弾けるハイブリットレインボウを見てたんだが
peeちゃんパートのギターが早すぎてよくわからないんだが
誰かコードに起こしてくれないだろうか?

535 :壁に耳あり、障子にメアリーさん:2005/06/11(土) 15:17:58
ハイブリは海外オタサイトに沢山転がっている。
コピオフwikiのtabrinkから探せ。

536 :壁に耳あり、障子にメアリーさん:2005/06/11(土) 18:48:22
>>534
たしかに最初はわかりずらいかもしれんが
何度も見ればわかるよ
一週間じゃ弾けないかもしれんがね

537 :壁に耳あり、障子にメアリーさん:2005/06/12(日) 00:19:44
プレデターズはスコア出すんだろうか?

538 :壁に耳あり、障子にメアリーさん:2005/06/16(木) 03:34:44
>>531
ダブルチョーキング?

539 :壁に耳あり、障子にメアリーさん:2005/06/16(木) 08:03:04
916DVDの確かめに行こうの前にムービーと一緒に流れてるやつの
耳コピお願いします

540 :壁に耳あり、障子にメアリーさん:2005/06/16(木) 18:33:19
↑あれぐらい自分でコピーしろよ。

541 :壁に耳あり、障子にメアリーさん:2005/06/16(木) 21:14:55
↑お願いしますよ

542 :壁に耳あり、障子にメアリーさん:2005/06/16(木) 23:00:24
↑その頼み方はないだろ。図々しい。教えなぃ。
ヒントは、まず単音を拾うことだ。そうすれば後からコードが乗ってくる。

543 :壁に耳あり、障子にメアリーさん :2005/06/17(金) 08:41:59
↑どうせお前も判らないんだろw偉そうに、耳コピしたこと無いくせに。
単音だってwww

544 :|電柱|・Д・) y-~~ ぬるぽ ◆ljcWNullPo :2005/06/17(金) 17:03:22
>>538
いやダブルじゃないと思った。
ダブルは二つの弦もろともチョーキングだよね?確か。

耳コピのこつはベースライン拾い。
そっからコード作る。
メジャーとマイナーは簡単だけど、M7とかsus4とかは素人にはお勧めできない。

545 :壁に耳あり、障子にメアリーさん:2005/06/18(土) 12:03:21
ハーモナイズドチョーキング

546 :壁に耳あり、障子にメアリーさん:2005/06/19(日) 00:41:16
ユニゾンチョーキング

547 :壁に耳あり、障子にメアリーさん:2005/06/21(火) 01:19:47
ダブルチョーキングって一音あげるやつじゃなかったっけ、うろ覚えだけど。ふつーのがフルチョーキングで半音あげ。微分音的になるとハーフとかクオーターチョーキング?
てか俺も質問です、ハイw

548 :壁に耳あり、障子にメアリーさん:2005/06/21(火) 16:46:02
>>547
2本の弦を同時に鳴らしてどちらかを
チョーキングして同じ音にする奴じゃなかったっけ?


549 :壁に耳あり、障子にメアリーさん:2005/06/21(火) 17:16:40
googleも使えない様な連中は全員死ねば良いのに

550 :|電柱|・Д・) y-~~ ぬるぽ ◆ljcWNullPo :2005/06/23(木) 11:18:32
何となく>>545の響きっぽい。

551 :壁に耳あり、障子にメアリーさん:2005/06/25(土) 11:15:34
hosyu

552 :壁に耳あり、障子にメアリーさん:2005/06/26(日) 00:17:37
>>525
タイニーきぼん

553 :壁に耳あり、障子にメアリーさん:2005/06/27(月) 21:40:15
最近のピロウズの曲って簡単なのばっかだよね

554 :壁に耳あり、障子にメアリーさん:2005/06/27(月) 23:03:01
あれだ、どんどん若くなってるらしいからだろう

555 :壁に耳あり、障子にメアリーさん:2005/06/27(月) 23:59:21
【アウ】the pillowsの音について語るスレ【イェー】
ttp://music4.2ch.net/test/read.cgi/compose/1117302494/l50

556 :壁に耳あり、障子にメアリーさん:2005/06/28(火) 03:11:49
bran new lovesongの使用コード教えてくらはい
happy bibourcもできれば

557 :壁に耳あり、障子にメアリーさん:2005/06/28(火) 20:40:14
まず、hiro2さんのホムペにピロウズのコード進行はほとんどありますので、そちらをググって下さい。

558 :壁に耳あり、障子にメアリーさん:2005/06/29(水) 22:20:59
さわおのサイクロンとスクワイアーのサイクロンって微妙に形違うくないか?
なんかスクワイアーのは丸っこい感じがするような。。

559 :壁に耳あり、障子にメアリーさん:2005/06/30(木) 08:24:28
>>557
あそこ間違ってるじゃまいか

560 :hiro2:2005/06/30(木) 21:39:17
ブランニュは最初以外合ってると思われ。
が、ビバークはひでーな!コードも節も違ってる。
反省。

561 :壁に耳あり、障子にメアリーさん:2005/06/30(木) 22:15:35
>>560
楽器も持ってないのに覗いている俺ガイル

562 :hiro2:2005/06/30(木) 23:06:01
とりあえずBメロはEm-A-D-A-B-G-A-
B♭の部分はB♭m


563 :壁に耳あり、障子にメアリーさん:2005/06/30(木) 23:41:29
brandnewは、instant musicのがわりとよかった

564 :壁に耳あり、障子にメアリーさん:2005/07/01(金) 20:53:31
しね

565 :壁に耳あり、障子にメアリーさん:2005/07/02(土) 12:41:52
あぁ、久しぶりに覗いたらhiroさんが降臨してた。

今度、ピロウズのコピーバンドをやる事になって
hiroさんのコード参考にさせて貰ってます。

今度、自分でコピった、アナザー、オレンジ、とかUPしますね。

566 :壁に耳あり、障子にメアリーさん:2005/07/02(土) 18:59:04
>>565
おう、頼んだぜ。

567 :壁に耳あり、障子にメアリーさん:2005/07/03(日) 01:06:38
>>565
おう、頼んだぜ。

568 :壁に耳あり、障子にメアリーさん:2005/07/03(日) 12:58:20
|----------------|
|--5-----6-------|
|---5---9-7------|
|----7-7---------|
|----------------|
|----------------|


569 :壁に耳あり、障子にメアリーさん:2005/07/04(月) 00:55:20
>>568
これなに?

570 :壁に耳あり、障子にメアリーさん:2005/07/04(月) 14:02:30
迷わず弾けよ
弾けば分かるさ

571 :壁に耳あり、障子にメアリーさん:2005/07/05(火) 01:14:40
どっかで聞いたようなフレーズだけど、なんなのか分からん。

572 :壁に耳あり、障子にメアリーさん:2005/07/05(火) 21:23:19
916のオープニング

573 :壁に耳あり、障子にメアリーさん:2005/07/06(水) 16:11:11
詳しく

574 :壁に耳あり、障子にメアリーさん:2005/07/06(水) 18:40:49
916便乗!さわおは何弾いてるのかな?
最初はAだろ?その次は何??

575 :壁に耳あり、障子にメアリーさん:2005/07/06(水) 21:36:36
916のロストマン>573

576 :壁に耳あり、障子にメアリーさん:2005/07/06(水) 23:01:02
Ride on shooting starの.tabファイルを見つけたので
楽器板で「Macで.tabファイルが開ける奴ないですか」って聞いたら
「そんなもの必要ないから誰も開発してねえんだよ糞Apple信者死ね!」みたいな事を言われたので
誰かtab譜をうpしてください…
もうこんな人生嫌だ。

577 :壁に耳あり、障子にメアリーさん:2005/07/06(水) 23:02:21
それわかって林檎使ってるんだから仕方ないだろう。

578 :壁に耳あり、障子にメアリーさん:2005/07/06(水) 23:05:32
つうか、.tabファイルって何?
.ptbじゃなくって?

579 :壁に耳あり、障子にメアリーさん:2005/07/07(木) 00:39:03
ごめん、.ptbだったかもしれん

580 :壁に耳あり、障子にメアリーさん:2005/07/07(木) 02:10:39
普通のロストマン


0|-------------p--|-s--------------|
1|1---------------|----------------|
2|1-------------1-|----3--6--88----|
3|2-----------23--|--3---35--77----|
4|3---------------|35-----7--88----|

581 :壁に耳あり、障子にメアリーさん:2005/07/07(木) 23:35:46
関東コピオフ参加者募集中

582 :壁に耳あり、障子にメアリーさん:2005/07/08(金) 07:54:14
いまさらだけど、上のやつpじゃなくてhだった。orz

583 :壁に耳あり、障子にメアリーさん:2005/07/11(月) 01:00:21
突然ですがチョーやっつけですがサンダー何とかのベース
http://wiki.fdiary.net/pillowssession/?Tab

H Q E Q E E S S E E E Q E E S S S S
|--------------------------------------------------------|
|----------------14-14-14-14-13--------14-14-14-14-13----|
|--------------------------------------------------------|
|-----------0--0------------------0--0-------------------|


Q E Q E Q E Q E E E E E Q E Q E Q E Q E E E E E
|------------------------------------------------------------------------|
|------------------------------------------------------------------------|
|-14----14----14----14----14---14---12----12----12----12----12---12------|
|------------------------------------------------------------------------|


E E E E E E E Q E E Q Q Q E E E E E E Q E E Q Q
|--------------------------------------------------------------------------|
|--------------------------------------------------------------------------|
|-0-0----0-11-0-11-12--11-12-11------0--0----0-11-0-11-12--11-12-11--------|
|-----12-------------------------12-------12-------------------------12----|


584 :壁に耳あり、障子にメアリーさん:2005/07/11(月) 11:33:06
>>583
ありがとうございます!ちょうど必要だったんですよ〜!助かりました!

585 :壁に耳あり、障子にメアリーさん:2005/07/15(金) 17:35:35
nine milesのタブあります?

586 :壁に耳あり、障子にメアリーさん:2005/07/15(金) 23:08:27
また曲名もパートも書かないクレクレ厨かよ

587 :壁に耳あり、障子にメアリーさん:2005/07/17(日) 12:49:12
BUMP OF CHICKENのタブあります?

588 :壁に耳あり、障子にメアリーさん:2005/07/17(日) 15:46:27
また曲名もパートも書かないクレクレ厨かよ

589 :壁に耳あり、障子にメアリーさん:2005/07/18(月) 10:41:01
や、ちょ、ま…それ以前にここのスレって?wwwwwwwwwww

590 :壁に耳あり、障子にメアリーさん:2005/07/18(月) 16:25:28
どこかにハイブリッドレインボウの詳しい楽譜はないですか?
普通のバンドスコアくらい詳しいものです。

今度うちのバンドで一人一曲持ち寄ってコピーすることになったのです。
そこで、私はハイブリッドレインボウをしたいと言いました。
5人居るバンドで3曲コピーできるようになり、後はハイブリと銀河鉄道の夜になりました。
次は何しようかという時に、ドラムの先輩が「銀河鉄道の夜」は難しいからちょっと後回しにしよう、
と言ったのです。そこで、ハイブリッドレインボウかなあと思ったら別の一曲をやりたいと言いました。
先輩命令なので従って、それもできるようになりました。
次に、今度こそハイブリだと思ったのですが、また別の一曲をやりたいと言い出したのです。
そこで、私は聞きました。
「ハイブリッドレインボウはやらないのですか?」すると先輩は言いました。
「バンドスコアがないからなあ、また今度な」と。
いま、銀河鉄道の夜を練習中です、それが終わるまでにバンドスコアレベルの楽譜を用意しないと
ハイブリッドレインボウが多分できなくなります。

コードが書かれているページを印刷して持って行ってもスコアがないからって言って練習してくれません。
コードじゃ駄目なんです。
お願いします。


591 :壁に耳あり、障子にメアリーさん:2005/07/18(月) 17:53:51
>>590
DVD買うべし。
ないなら楽譜作るべし〜

592 :壁に耳あり、障子にメアリーさん:2005/07/18(月) 17:54:06
ハイブリ講座見てスコアに起こせば?
ドラムは激しく不親切ですがまあ適当にタム回ししてもらえばどうにかなるんじゃ?w

593 :壁に耳あり、障子にメアリーさん:2005/07/18(月) 18:32:07
>>591
DVDは今、ギターの人(さわおパート予定)に貸しています。
彼はアジカンファンで、pillowsにも前向きです。
いつも難しいって言ってます、まあ、彼はギターはじめて二ヶ月ですから。

とりあえず、楽譜作るのがんばります。

>>592
ドラムの先輩に一回見せたら最後まで見ないで返されました。OTZ

ベースはwinnyで落として持ってるみたいです。
リードギターの先輩は4回に一回しか練習に来ないのでDVD貸せれていません。
ドラムの先輩に決定権があるのにドラムの先輩がpillows嫌いみたいなんです。OTZ

594 :壁に耳あり、障子にメアリーさん:2005/07/18(月) 18:44:54
>>593
そんなやる気の無い奴らとのバンドなんて辞めちまえ!
アジカンやら銀河鉄道とかから察するに、リア高か?
上下関係厳しいバンドなんて楽しいか?

>ベースはwinnyで落として持ってるみたいです。
ちょっとその糞ベース連れて来い。

595 :壁に耳あり、障子にメアリーさん:2005/07/18(月) 19:25:32
>>590
信じられん・・・全部バンスコの通りに演って何が楽しいの?
辞めたがいいんでない?

596 :壁に耳あり、障子にメアリーさん:2005/07/18(月) 19:38:52
>>594
大学の軽音部です。
それに今まで私は野球部でしたから、上下関係については、こんなに緩いのか、位にしか思ってなかったですw

ベースについては衝撃的でした。
私「DVD貸そうか?」
「いや、いい」
私「え!?持ってるの?」
「いや、winnyで落とした。
 pillowsは名前くらいは知ってて気になってたから、他にもアルバムいろいろ落としたよ。悪くはないけど、
 ゴイステ命の俺からしたら案外微妙だったよ」
OTZ

>>595
他に組む相手が居ないんです。 OTZ

597 :壁に耳あり、障子にメアリーさん:2005/07/18(月) 20:43:44
ぶっちゃけバンド板の話題のような希ガス

…で片付けるのもかわいそうだな。

・やりたいことやれないバンドの中で 妥協して弾くか
・どうにかこうにかしてやらせてもらえるように説得し続けるか
・もしくはやらしてもらえるようなバンドに合流するか

この三つしかないんでない?どれ選んでもそれ相応の苦労はある。がんがれ

とりあえず"バンスコあるか"については答えが出てるじゃん。
つ【DVD】もしくは【そこから自分で書く】

長文スマソ

598 :壁に耳あり、障子にメアリーさん:2005/07/18(月) 21:43:53
がんばって自分で書きます。
それではノシ

599 :壁に耳あり、障子にメアリーさん:2005/07/18(月) 23:29:48
ドラムがピロウズ好きじゃないのはわかるな。
この位の歳って、極端に軽い方へながれたり、ジャジーな方へ走ったり、
各マガジンに載るような上手いプレーヤーにハマるんだよ。
ましてハイブリはあまりしんちゃんらしさが前面に出てないし(聴き込むとしんちゃんらしいのだが)、
非常に中途半端なイメージかもね。



何故皆wikiを教えてあげないのか?
ttp://wiki.fdiary.net/pillowssession/?TabLink
ここのなかにハイブリは沢山ある

600 :壁に耳あり、障子にメアリーさん:2005/07/19(火) 00:02:31
>>599
おお!ありがとうございます!!
本当、いっぱいありますね。

601 :壁に耳あり、障子にメアリーさん:2005/07/19(火) 17:29:44
大学生がゴイステ・アジカン…なんだかなぁ
取り合えず、ベース殴っとけ

602 :壁に耳あり、障子にメアリーさん:2005/07/19(火) 17:58:48
俺も大学生だが、俺の友達もピロウズの反応イマイチだったな。
エルレがウケた。

603 :壁に耳あり、障子にメアリーさん:2005/07/19(火) 23:16:42
俺は社会人一年目だが研修期間中に同期と一曲づつ希望曲出して合わせするべって
話になったやつらに、ピロウズ聞かしたっけ結構好感触だった。
(結局あわせは日程的問題でできなかった、スコア無いため希望曲にピロウズはあげなかった)

バンプファンのドラムはハイブリ(バンプver)は聞いたことあるって言ってたw

604 :壁に耳あり、障子にメアリーさん:2005/07/20(水) 00:05:55
>>603
いいじゃんw俺もシンクロからだし。

それよりバンプの静かなハイブリも良いけど本場のハイブリも聴かせてやりな。うんこもらすぜ。

605 :壁に耳あり、障子にメアリーさん:2005/07/20(水) 00:25:59
アジカンは演奏の下手さと音の作りに萎えた。

606 :壁に耳あり、障子にメアリーさん:2005/07/20(水) 00:39:37
>605
というよりはメロディラインが全部一緒に聴こえてきた

607 :壁に耳あり、障子にメアリーさん:2005/07/20(水) 00:55:46
鯵缶ライブに行ってギターとベース中心に聴くとポカーンだ。
音ボカシすぎ、良い会場でアレだから、野外なんかやった日にはガクブル
さわをの方がましだったりして。

608 :壁に耳あり、障子にメアリーさん:2005/07/20(水) 01:20:41
ボーカルのビッグマウスぶりにワラタw
偏差値がどーのこーのとか、音楽に関係無いのに自慢してさ…
口ばっかりで中身が無いくせに批判だけは一人前にしやがるw

609 :壁に耳あり、障子にメアリーさん:2005/07/20(水) 01:46:28
ここ何スレですか?

610 :壁に耳あり、障子にメアリーさん:2005/07/20(水) 02:26:48
ハレー彗星で、Aメロリフ。
1|----3--3--------
2|--3---3---------
3|0---------------
1|----3--3--------
2|--2---2---------
3|0---------------
1|----3--3--------
2|--1---1---------
3|0---------------
1|----3--3--------
2|--0---0---------
3|0---------------
を二回

1|----3--3---3----
2|--3---3---3-----
3|0---------------
後ろ二音は小さく
で、同じように2弦を1フレずつずらして下る。

で、最初の5音のメロディでもう一回。

耳コピスレです、はいw

611 :壁に耳あり、障子にメアリーさん:2005/07/23(土) 09:49:23
アジカン、CDで聴く限りだとドラムはかなり上手くないか?


612 :壁に耳あり、障子にメアリーさん:2005/07/23(土) 11:14:11
明らかにスレ違いですよ
>>609-610で流れが変わったんだから、蒸し返すな

613 :壁に耳あり、障子にメアリーさん:2005/07/23(土) 14:36:53
スケルトンライアー
前奏
4|--------|--------|4-4-42-4|-244-77-
5|5-5-54-5|-455-77-|--------|--------

リフ(10フレがあるので間隔あけてみた)
2|3---3---3-2---3-|--2-3-3---5-5---|

2|7---7---7-5---7-|--5-7-7---1010--|

2|3---3---3-2---3-|--2-3-3---2-2---|

2|4---4---4-2---4-|--2-4-2---0-2---|

リフは自信なしっす。

614 :壁に耳あり、障子にメアリーさん:2005/07/23(土) 14:38:35
>2|4---4---4-2---4-|--2-4-2---0-2---|
3弦の間違いでした。

615 :壁に耳あり、障子にメアリーさん:2005/07/24(日) 13:55:06
失礼します
ハイブリッドレインボウ講座のイントロのD6って
1弦の5フレット
3,4弦の4フレット
5弦の5フレットですよね。
1弦を小指で抑えるのが難しいんですけどコツとかありますか?
薬指の腹が4弦に当たっちゃうんですよね

616 :壁に耳あり、障子にメアリーさん:2005/07/24(日) 14:30:04
>>615
さわおは1弦省略してると思う。
間違ってたらゴメン

617 :壁に耳あり、障子にメアリーさん:2005/07/24(日) 14:59:42
>>616
あ、そうなんですか。映像見ても抑えてるかどうか微妙だったんですよね。
それなら出来そうです。ありがとうございました

618 :壁に耳あり、障子にメアリーさん:2005/07/24(日) 15:42:57
>3,4弦の4フレット
>5弦の5フレット
今までこれで抑えてたけど
一弦足してもナントカなったわ、指をきちんと立てるのを
普段から実践しとけばできるようになるよ。

619 :壁に耳あり、障子にメアリーさん:2005/07/29(金) 16:26:01
Waiting at the busstop コードまだー?

620 :壁に耳あり、障子にメアリーさん:2005/07/29(金) 21:44:20
G D G D以上

621 :壁に耳あり、障子にメアリーさん:2005/07/30(土) 23:38:05
>>613みたいな譜面の読み方がわからないのだけど、教えてはくれませぬか?

622 :壁に耳あり、障子にメアリーさん:2005/07/31(日) 02:30:28
一番左が弦の番号で右側の番号が押さえるフレット

623 :壁に耳あり、障子にメアリーさん:2005/07/31(日) 03:03:12
>>622
親切!
dクス!!

624 :壁に耳あり、障子にメアリーさん:2005/08/05(金) 17:35:05
Dead Stock Paradiseのコード進行キボン

625 :壁に耳あり、障子にメアリーさん:2005/08/05(金) 21:57:34
hiro2さんとこ行け。
間違ってるところがあれば己で解決しる

626 :壁に耳あり、障子にメアリーさん:2005/08/06(土) 14:22:17
>>625
デッドストック〜はhiro2さんとこに載ってないんです…

627 :壁に耳あり、障子にメアリーさん:2005/08/06(土) 17:05:24
ttp://www.guitarmasta.net/p/pillows,_the/

ttp://www.911tabs.com/tabs/p/pillows/

ttp://www.ultimate-guitar.com/tabs/pillows_tabs.htm

ttp://www.pirouzu.net/index2.html

tabでよければ、wikiのtablinkからこれだけ見つけられるのだが

628 :壁に耳あり、障子にメアリーさん:2005/08/07(日) 17:51:57
某wikiのtablinkに新たに見つけたページを追加しました。
まぁ、他サイトで既出の曲しかなかったが。

629 :壁に耳あり、障子にメアリーさん:2005/08/14(日) 14:08:16
保守あげ


やっぱり楽器板のスレよりこちらのスレの方が好きだ。
あちらのスレには既出な質問厨か、検索もしないでタブ譜がないとか言ってる奴が多い。
人多杉はどうにかならんのかねぇ。

630 :壁に耳あり、障子にメアリーさん:2005/08/14(日) 15:03:06
>>629
専ブラ

631 :壁に耳あり、障子にメアリーさん:2005/08/14(日) 15:45:50
専ブラ使えない人が多いからこうなるわけで

632 :壁に耳あり、障子にメアリーさん:2005/08/14(日) 16:29:00
専ブラなんてただな上にインストールも簡単なわけで

633 :壁に耳あり、障子にメアリーさん:2005/08/14(日) 20:23:57
だよな。なんで使わないんだろうね。
つうか、携帯からだと人大杉にならないよね?

634 :壁に耳あり、障子にメアリーさん:2005/08/15(月) 04:41:09
専ブラ使わない人はそれなりの意思があるんだろ。
やっぱ自分の動きが知られたくない人は専ブラ使わないだろうし。

635 :壁に耳あり、障子にメアリーさん:2005/08/15(月) 17:11:53
俺携帯からだけど人大杉なるよ。まぁかなり低確率だが。

専ブラ使うと動きわかっちゃうの?

636 :壁に耳あり、障子にメアリーさん:2005/08/16(火) 19:23:26
40 :名無しさん@ゴーゴーゴーゴー! :02/11/16 22:35 ID:bnQKGsSt
まったく無知とは恐ろしいものだな。
「かちゅ〜しゃ」だの「ホットゾヌ」だの、2ちゃん専用ブラウザは、
元々、プロ固定専用ブラウザからIP抜きや強制sage機能を削除した
機能限定&流出版だというのは、この界隈では常識だと思っていたが。

だから「専用ブラウザで閲覧=IP抜かれる」は至極当然。
元来はプロ固定の行動を運営陣が監視するための機能だし。
そもそもブラウザの種類=派閥の数ということで。
━━━━━━━━━━━━━━━━━━━━

だってさ。本当かどうかは知らんが。

637 :壁に耳あり、障子にメアリーさん:2005/08/16(火) 23:27:23
正直なところ、どこにある情報がどこに貯められ、
誰がどうそれをゲットするのか。ただのネタでしかないよ、たぶんね。

もし漏れるとしてその理由を無理やり作るとすれば

1、(全ての?w)センブラのどっかに情報送るってコードが含まれていて
 センブラ作った人の下にセンブラ使ってる人全ての情報が集まる
  →個人情報業者に売るのか?w

2、2chの構造としてログ取りが二重になってて通常のログと
  別にセンブラ使ってる人のログファイルが作られていて、
  何故かセンブラの方のログだけ流出している。
  →そのログ取り基準がわからんw
    センブラ流行らせたいんじゃないのか、2ch?ww

3、掲示板の機能(欠陥)としてセンブラ使って書いたログは
  取り出せるようになっている。(SQL的な部分でのはじきミスってか?w)
  →これが一番現実的だが・・・それでもまずありえない

638 :壁に耳あり、障子にメアリーさん:2005/08/17(水) 12:08:03
ストレンジカメレオン(アコースティックバージョン)
のコード進行が載っているところありませんか?

639 :壁に耳あり、障子にメアリーさん:2005/08/17(水) 23:56:32
ギタリストじゃないので、アコースティックバージョンかどうかわからないが、
まずは、
ttp://wiki.fdiary.net/pillowssession/?TabLink
を検索してみて。
このほかにコードとか載ってるサイトは誰も知らないと思う。

640 :壁に耳あり、障子にメアリーさん:2005/08/18(木) 00:26:52
>>639
左上ので検索してみたのですが、
■Strange Chameleon

Vo:

MGu:きんぎょ

SGu:

Ba:

Dr:野梨

などと良くわからないものが出てきます

641 :壁に耳あり、障子にメアリーさん:2005/08/18(木) 00:43:39
何故、そのまま頭にhをつければ良いのに複雑なことするのかね?



直リンで行けないならFRONTPAGEのメニューからTABLINKに行きなさい。

642 :壁に耳あり、障子にメアリーさん:2005/08/18(木) 01:00:49
>>640はまさかサイト内のストレンジカメレオンという言葉を検索したのかw
そこのサイト内を検索するなら普通はFRONTPAGEのURLを教えるだろうがw


>>639のページにあるリンクをクリックして探せということだ。

643 :壁に耳あり、障子にメアリーさん:2005/08/18(木) 19:18:56
>>641
? そのままクリックしましたが
>>642
URLのリストから好きなのに飛べってことですか。どうもです

644 :壁に耳あり、障子にメアリーさん:2005/08/18(木) 23:08:46
なんかトゲがあるレスだな。

645 :壁に耳あり、障子にメアリーさん:2005/08/18(木) 23:38:51
>>644
>>641でちょっとイラっとしてしまいました。申し訳ないです。これからは気をつけます。

646 :壁に耳あり、障子にメアリーさん:2005/08/18(木) 23:40:33
Waiting at the Busstop 1番の"痛くないドリーミィダンスイェー"
のあとのPeeちゃんギターって

4弦0F・2弦3F・3弦2F・1弦2F

で合ってますかね?携帯からなんでtab書けなくてすまんです

647 :壁に耳あり、障子にメアリーさん:2005/08/22(月) 00:48:30
それっぽいけど俺には正確な判断は下せないス。

648 :646:2005/08/22(月) 09:29:29
>>647 ありがとう つまんないことに答えさせてスマソ

ちょっくらライブしてくらぁ ノシ

649 :壁に耳あり、障子にメアリーさん:2005/08/27(土) 14:09:00
おまいら、コピーオフのTABLINKが別サイトになったみたいだぞ!
the pillows tab links
ttp://wiki.fdiary.net/thepillowstablinks/

650 :壁に耳あり、障子にメアリーさん:2005/08/28(日) 06:13:53
巴里の女性マリーのコードってないのかな?
TABLINK全部見たけど、なくて。。


651 :壁に耳あり、障子にメアリーさん:2005/08/28(日) 16:50:45
 TABLinkのタブはほとんど外国産
→外人は90'sMy Lifeなんて持ってない
→ていうか日本人でもあんまり持ってない
→つまりっ・・・・・・・!
























キーはGだからがんばれ。

652 :壁に耳あり、障子にメアリーさん:2005/08/29(月) 13:49:10


653 :壁に耳あり、障子にメアリーさん:2005/08/30(火) 00:41:41
ピロウズのアコースティックなの良いね。
僕らのハレー彗星、タイニーボート、日々のうた、パトリシア、ファニーバニー・・・
他にはアコギ向きの曲ってどんなのあるかなぁ?皆の意見が聞きたい。


スレ違いでごめんよっ!

654 :yuma:2005/08/30(火) 00:49:02
この世の果てまで
ラストダイナソー
のギタータブがわかる方いらっしゃいますか?

655 :壁に耳あり、障子にメアリーさん:2005/08/30(火) 16:43:17
>>654 つ【五つ前のレス】

そして夏休みは終焉を迎えるのであった

656 :壁に耳あり、障子にメアリーさん:2005/08/30(火) 18:17:10
>>653
ストレンジカメレオンを忘れちゃ駄目

657 :壁に耳あり、障子にメアリーさん:2005/08/30(火) 19:00:31
ストカメの、

勘違いしないでね 別に悲しくはないのさ
抱き合わせなんだろ 孤独と自由はいつも

の部分のコード教えて下さい。

658 :壁に耳あり、障子にメアリーさん:2005/08/30(火) 20:38:47
>>657
氏ね

659 :壁に耳あり、障子にメアリーさん:2005/08/30(火) 21:37:22
>>658
なんでだよ。すぐ人に氏ねとか言うなよ。

660 :壁に耳あり、障子にメアリーさん:2005/08/30(火) 21:50:17
はいはいとりあえずsageようね。

661 :壁に耳あり、障子にメアリーさん:2005/08/30(火) 22:23:02
ごめんなさい、教えて下さい。

662 :壁に耳あり、障子にメアリーさん:2005/08/31(水) 14:44:44
Em    A7
勘違いしないでね

  C      G
別に悲しくはないのさ

 Em     A7
抱き合わせなんだろう

 C
孤独と自由はいつも

663 :壁に耳あり、障子にメアリーさん:2005/08/31(水) 15:47:51
>>662
どうもアリガト。

664 :壁に耳あり、障子にメアリーさん:2005/08/31(水) 22:05:34
まるでダダッ子だな

665 :壁に耳あり、障子にメアリーさん:2005/09/01(木) 11:31:10
だがそれがい…いや、ごめん。全然よくないわ

171 KB
■ このスレッドは過去ログ倉庫に格納されています

★スマホ版★ 掲示板に戻る 全部 前100 次100 最新50

read.cgi ver 05.04.00 2017/10/04 Walang Kapalit ★
FOX ★ DSO(Dynamic Shared Object)